  0
SECTION
  2
HEADER
  9
$ACADVER
  1
AC1015
  9
$ACADMAINTVER
 70
     6
  9
$DWGCODEPAGE
  3
ANSI_932
  9
$INSBASE
 10
0.0
 20
0.0
 30
0.0
  9
$EXTMIN
 10
-39388.31230787149
 20
-39723.85460132336
 30
0.0
  9
$EXTMAX
 10
40661.6876921285
 20
40326.14539867664
 30
0.0
  9
$LIMMIN
 10
0.0
 20
0.0
  9
$LIMMAX
 10
420.0
 20
297.0
  9
$ORTHOMODE
 70
     0
  9
$REGENMODE
 70
     1
  9
$FILLMODE
 70
     1
  9
$QTEXTMODE
 70
     0
  9
$MIRRTEXT
 70
     1
  9
$LTSCALE
 40
1.0
  9
$ATTMODE
 70
     1
  9
$TEXTSIZE
 40
5.0
  9
$TRACEWID
 40
1.0
  9
$TEXTSTYLE
  7
OKANO
  9
$CLAYER
  8
寸法線
  9
$CELTYPE
  6
ByLayer
  9
$CECOLOR
 62
   256
  9
$CELTSCALE
 40
1.0
  9
$DISPSILH
 70
     0
  9
$DIMSCALE
 40
0.0
  9
$DIMASZ
 40
3.0
  9
$DIMEXO
 40
2.0
  9
$DIMDLI
 40
8.0
  9
$DIMRND
 40
0.0
  9
$DIMDLE
 40
0.0
  9
$DIMEXE
 40
3.0
  9
$DIMTP
 40
0.0
  9
$DIMTM
 40
0.0
  9
$DIMTXT
 40
5.0
  9
$DIMCEN
 40
2.5
  9
$DIMTSZ
 40
0.0
  9
$DIMTOL
 70
     0
  9
$DIMLIM
 70
     0
  9
$DIMTIH
 70
     0
  9
$DIMTOH
 70
     0
  9
$DIMSE1
 70
     0
  9
$DIMSE2
 70
     0
  9
$DIMTAD
 70
     1
  9
$DIMZIN
 70
     8
  9
$DIMBLK
  1
Closed
  9
$DIMASO
 70
     1
  9
$DIMSHO
 70
     1
  9
$DIMPOST
  1

  9
$DIMAPOST
  1

  9
$DIMALT
 70
     0
  9
$DIMALTD
 70
     3
  9
$DIMALTF
 40
0.03937007874016
  9
$DIMLFAC
 40
1.0
  9
$DIMTOFL
 70
     1
  9
$DIMTVP
 40
0.0
  9
$DIMTIX
 70
     0
  9
$DIMSOXD
 70
     0
  9
$DIMSAH
 70
     0
  9
$DIMBLK1
  1

  9
$DIMBLK2
  1

  9
$DIMSTYLE
  2
sunpo
  9
$DIMCLRD
 70
     0
  9
$DIMCLRE
 70
     0
  9
$DIMCLRT
 70
     0
  9
$DIMTFAC
 40
1.0
  9
$DIMGAP
 40
1.0
  9
$DIMJUST
 70
     0
  9
$DIMSD1
 70
     0
  9
$DIMSD2
 70
     0
  9
$DIMTOLJ
 70
     0
  9
$DIMTZIN
 70
     8
  9
$DIMALTZ
 70
     0
  9
$DIMALTTZ
 70
     0
  9
$DIMUPT
 70
     0
  9
$DIMDEC
 70
     2
  9
$DIMTDEC
 70
     2
  9
$DIMALTU
 70
     2
  9
$DIMALTTD
 70
     3
  9
$DIMTXSTY
  7
OKANO
  9
$DIMAUNIT
 70
     0
  9
$DIMADEC
 70
     0
  9
$DIMALTRND
 40
0.0
  9
$DIMAZIN
 70
     0
  9
$DIMDSEP
 70
    46
  9
$DIMATFIT
 70
     3
  9
$DIMFRAC
 70
     0
  9
$DIMLDRBLK
  1
Closed
  9
$DIMLUNIT
 70
     2
  9
$DIMLWD
 70
    -2
  9
$DIMLWE
 70
    -2
  9
$DIMTMOVE
 70
     0
  9
$LUNITS
 70
     2
  9
$LUPREC
 70
     2
  9
$SKETCHINC
 40
1.0
  9
$FILLETRAD
 40
1.0
  9
$AUNITS
 70
     0
  9
$AUPREC
 70
     0
  9
$MENU
  1
.
  9
$ELEVATION
 40
0.0
  9
$PELEVATION
 40
0.0
  9
$THICKNESS
 40
0.0
  9
$LIMCHECK
 70
     0
  9
$CHAMFERA
 40
10.0
  9
$CHAMFERB
 40
10.0
  9
$CHAMFERC
 40
20.0
  9
$CHAMFERD
 40
0.0
  9
$SKPOLY
 70
     0
  9
$TDCREATE
 40
2452362.482225463
  9
$TDUCREATE
 40
2452362.107225463
  9
$TDUPDATE
 40
2455989.474669432
  9
$TDUUPDATE
 40
2455989.099669432
  9
$TDINDWG
 40
4.1353203472
  9
$TDUSRTIMER
 40
4.1353203472
  9
$USRTIMER
 70
     1
  9
$ANGBASE
 50
0.0
  9
$ANGDIR
 70
     0
  9
$PDMODE
 70
     0
  9
$PDSIZE
 40
0.0
  9
$PLINEWID
 40
0.0
  9
$SPLFRAME
 70
     0
  9
$SPLINETYPE
 70
     6
  9
$SPLINESEGS
 70
     8
  9
$HANDSEED
  5
6A93
  9
$SURFTAB1
 70
     6
  9
$SURFTAB2
 70
     6
  9
$SURFTYPE
 70
     6
  9
$SURFU
 70
     6
  9
$SURFV
 70
     6
  9
$UCSBASE
  2

  9
$UCSNAME
  2

  9
$UCSORG
 10
0.0
 20
0.0
 30
0.0
  9
$UCSXDIR
 10
1.0
 20
0.0
 30
0.0
  9
$UCSYDIR
 10
0.0
 20
1.0
 30
0.0
  9
$UCSORTHOREF
  2

  9
$UCSORTHOVIEW
 70
     0
  9
$UCSORGTOP
 10
0.0
 20
0.0
 30
0.0
  9
$UCSORGBOTTOM
 10
0.0
 20
0.0
 30
0.0
  9
$UCSORGLEFT
 10
0.0
 20
0.0
 30
0.0
  9
$UCSORGRIGHT
 10
0.0
 20
0.0
 30
0.0
  9
$UCSORGFRONT
 10
0.0
 20
0.0
 30
0.0
  9
$UCSORGBACK
 10
0.0
 20
0.0
 30
0.0
  9
$PUCSBASE
  2

  9
$PUCSNAME
  2

  9
$PUCSORG
 10
0.0
 20
0.0
 30
0.0
  9
$PUCSXDIR
 10
1.0
 20
0.0
 30
0.0
  9
$PUCSYDIR
 10
0.0
 20
1.0
 30
0.0
  9
$PUCSORTHOREF
  2

  9
$PUCSORTHOVIEW
 70
     0
  9
$PUCSORGTOP
 10
0.0
 20
0.0
 30
0.0
  9
$PUCSORGBOTTOM
 10
0.0
 20
0.0
 30
0.0
  9
$PUCSORGLEFT
 10
0.0
 20
0.0
 30
0.0
  9
$PUCSORGRIGHT
 10
0.0
 20
0.0
 30
0.0
  9
$PUCSORGFRONT
 10
0.0
 20
0.0
 30
0.0
  9
$PUCSORGBACK
 10
0.0
 20
0.0
 30
0.0
  9
$USERI1
 70
     0
  9
$USERI2
 70
     0
  9
$USERI3
 70
     0
  9
$USERI4
 70
     0
  9
$USERI5
 70
     0
  9
$USERR1
 40
0.0
  9
$USERR2
 40
0.0
  9
$USERR3
 40
0.0
  9
$USERR4
 40
0.0
  9
$USERR5
 40
0.0
  9
$WORLDVIEW
 70
     1
  9
$SHADEDGE
 70
     3
  9
$SHADEDIF
 70
    70
  9
$TILEMODE
 70
     0
  9
$MAXACTVP
 70
    64
  9
$PINSBASE
 10
0.0
 20
0.0
 30
0.0
  9
$PLIMCHECK
 70
     0
  9
$PEXTMIN
 10
-4.41382938596746
 20
-3.468932611831576
 30
-0.0015258207003583
  9
$PEXTMAX
 10
278.855004473357
 20
202.394257080618
 30
0.0000000349246037
  9
$PLIMMIN
 10
-20.0
 20
-7.5
  9
$PLIMMAX
 10
277.0
 20
202.4999999999999
  9
$UNITMODE
 70
     0
  9
$VISRETAIN
 70
     1
  9
$PLINEGEN
 70
     0
  9
$PSLTSCALE
 70
     1
  9
$TREEDEPTH
 70
  3020
  9
$CMLSTYLE
  2
Standard
  9
$CMLJUST
 70
     0
  9
$CMLSCALE
 40
20.0
  9
$PROXYGRAPHICS
 70
     1
  9
$MEASUREMENT
 70
     1
  9
$CELWEIGHT
370
    -1
  9
$ENDCAPS
280
     0
  9
$JOINSTYLE
280
     0
  9
$LWDISPLAY
290
     0
  9
$INSUNITS
 70
     4
  9
$HYPERLINKBASE
  1

  9
$STYLESHEET
  1

  9
$XEDIT
290
     1
  9
$CEPSNTYPE
380
     0
  9
$PSTYLEMODE
290
     1
  9
$FINGERPRINTGUID
  2
{FF7F33C3-4233-11D6-AEE0-0000F45FD7F4}
  9
$VERSIONGUID
  2
{18C551B9-31A2-4EF1-9DC9-AB6CA41461E2}
  9
$EXTNAMES
290
     1
  9
$PSVPSCALE
 40
0.0
  9
$OLESTARTUP
290
     0
  0
ENDSEC
  0
SECTION
  2
CLASSES
  0
CLASS
  1
ACDBDICTIONARYWDFLT
  2
AcDbDictionaryWithDefault
  3
AutoCAD 2000
 90
        0
280
     0
281
     0
  0
CLASS
  1
ACDBPLACEHOLDER
  2
AcDbPlaceHolder
  3
AutoCAD 2000
 90
        0
280
     0
281
     0
  0
CLASS
  1
LAYOUT
  2
AcDbLayout
  3
AutoCAD 2000
 90
        0
280
     0
281
     0
  0
CLASS
  1
DICTIONARYVAR
  2
AcDbDictionaryVar
  3
AutoCAD 2000
 90
        0
280
     0
281
     0
  0
ENDSEC
  0
SECTION
  2
TABLES
  0
TABLE
  2
VPORT
  5
8
330
0
100
AcDbSymbolTable
 70
     7
  0
VPORT
  5
6A92
330
8
100
AcDbSymbolTableRecord
100
AcDbViewportTableRecord
  2
*Active
 70
     0
 10
0.0
 20
0.0
 11
1.0
 21
1.0
 12
1566.176533376683
 22
2631.108320312764
 13
0.0
 23
0.0
 14
5.0
 24
5.0
 15
10.0
 25
10.0
 16
0.0
 26
0.0
 36
1.0
 17
0.0
 27
0.0
 37
0.0
 40
2555.538457055139
 41
1.968879668049792
 42
50.0
 43
0.0
 44
0.0
 50
0.0
 51
0.0
 71
     0
 72
   100
 73
     1
 74
     3
 75
     0
 76
     0
 77
     0
 78
     0
281
     0
 65
     1
110
0.0
120
0.0
130
0.0
111
1.0
121
0.0
131
0.0
112
0.0
122
1.0
132
0.0
 79
     0
146
0.0
  0
ENDTAB
  0
TABLE
  2
LTYPE
  5
5
330
0
100
AcDbSymbolTable
 70
     5
  0
LTYPE
  5
14
330
5
100
AcDbSymbolTableRecord
100
AcDbLinetypeTableRecord
  2
ByBlock
 70
     0
  3

 72
    65
 73
     0
 40
0.0
  0
LTYPE
  5
15
330
5
100
AcDbSymbolTableRecord
100
AcDbLinetypeTableRecord
  2
ByLayer
 70
     0
  3

 72
    65
 73
     0
 40
0.0
  0
LTYPE
  5
16
330
5
100
AcDbSymbolTableRecord
100
AcDbLinetypeTableRecord
  2
Continuous
 70
     0
  3
Solid line
 72
    65
 73
     0
 40
0.0
  0
LTYPE
  5
33
330
5
100
AcDbSymbolTableRecord
100
AcDbLinetypeTableRecord
  2
DASHED2
 70
     0
  3
Dashed (.5x) _ _ _ _ _ _ _ _ _ _ _ _ _ _ _ _ _
 72
    65
 73
     2
 40
9.524999999999998
 49
6.349999999999999
 74
     0
 49
-3.174999999999999
 74
     0
  0
LTYPE
  5
34
330
5
100
AcDbSymbolTableRecord
100
AcDbLinetypeTableRecord
  2
CENTER2
 70
     0
  3
Center (.5x) ___ _ ___ _ ___ _ ___ _ ___ _ ___
 72
    65
 73
     4
 40
28.57499999999999
 49
19.05
 74
     0
 49
-3.174999999999999
 74
     0
 49
3.174999999999999
 74
     0
 49
-3.174999999999999
 74
     0
  0
LTYPE
  5
35
330
5
100
AcDbSymbolTableRecord
100
AcDbLinetypeTableRecord
  2
PHANTOM2
 70
     0
  3
Phantom (.5x) ___ _ _ ___ _ _ ___ _ _ ___ _ _
 72
    65
 73
     6
 40
31.75
 49
15.875
 74
     0
 49
-3.174999999999999
 74
     0
 49
3.174999999999999
 74
     0
 49
-3.174999999999999
 74
     0
 49
3.174999999999999
 74
     0
 49
-3.174999999999999
 74
     0
  0
LTYPE
  5
36
330
5
100
AcDbSymbolTableRecord
100
AcDbLinetypeTableRecord
  2
HIDDEN2
 70
     0
  3
Hidden (.5x) _ _ _ _ _ _ _ _ _ _ _ _ _ _ _ _ _
 72
    65
 73
     2
 40
4.762499999999999
 49
3.174999999999999
 74
     0
 49
-1.587499999999999
 74
     0
  0
ENDTAB
  0
TABLE
  2
LAYER
  5
2
330
0
100
AcDbSymbolTable
 70
    13
  0
LAYER
  5
10
330
2
100
AcDbSymbolTableRecord
100
AcDbLayerTableRecord
  2
0
 70
     0
 62
     7
  6
Continuous
370
    -3
390
F
  0
LAYER
  5
40
330
2
100
AcDbSymbolTableRecord
100
AcDbLayerTableRecord
  2
50-0-CON
 70
     0
 62
     4
  6
Continuous
370
    50
390
F
  0
LAYER
  5
41
330
2
100
AcDbSymbolTableRecord
100
AcDbLayerTableRecord
  2
70-0-CON
 70
     0
 62
   202
  6
Continuous
370
    70
390
F
  0
LAYER
  5
4E
330
2
100
AcDbSymbolTableRecord
100
AcDbLayerTableRecord
  2
極太線
 70
     0
 62
     7
  6
Continuous
370
    70
390
F
  0
LAYER
  5
4F
330
2
100
AcDbSymbolTableRecord
100
AcDbLayerTableRecord
  2
細線
 70
     0
 62
     8
  6
Continuous
370
    18
390
F
  0
LAYER
  5
AB
330
2
100
AcDbSymbolTableRecord
100
AcDbLayerTableRecord
  2
構築線
 70
     0
 62
     2
  6
Continuous
370
    18
390
F
  0
LAYER
  5
B8
330
2
100
AcDbSymbolTableRecord
100
AcDbLayerTableRecord
  2
太線
 70
     0
 62
     7
  6
Continuous
370
    35
390
F
  0
LAYER
  5
B9
330
2
100
AcDbSymbolTableRecord
100
AcDbLayerTableRecord
  2
寸法線
 70
     0
 62
     5
  6
Continuous
370
    18
390
F
  0
LAYER
  5
BA
330
2
100
AcDbSymbolTableRecord
100
AcDbLayerTableRecord
  2
破線
 70
     0
 62
     8
  6
HIDDEN2
370
    18
390
F
  0
LAYER
  5
BB
330
2
100
AcDbSymbolTableRecord
100
AcDbLayerTableRecord
  2
中心線
 70
     0
 62
     1
  6
CENTER2
370
    18
390
F
  0
LAYER
  5
BC
330
2
100
AcDbSymbolTableRecord
100
AcDbLayerTableRecord
  2
想像線
 70
     0
 62
     8
  6
PHANTOM2
370
    18
390
F
  0
LAYER
  5
BD
330
2
100
AcDbSymbolTableRecord
100
AcDbLayerTableRecord
  2
文字
 70
     0
 62
     7
  6
Continuous
370
    18
390
F
  0
LAYER
  5
180
330
2
100
AcDbSymbolTableRecord
100
AcDbLayerTableRecord
  2
Defpoints
 70
     0
 62
     7
  6
Continuous
290
     0
370
    -3
390
F
  0
ENDTAB
  0
TABLE
  2
STYLE
  5
3
330
0
100
AcDbSymbolTable
 70
     3
  0
STYLE
  5
11
330
3
100
AcDbSymbolTableRecord
100
AcDbTextStyleTableRecord
  2
Standard
 70
     0
 40
0.0
 41
1.0
 50
0.0
 71
     0
 42
3.0
  3
txt
  4

  0
STYLE
  5
32
330
3
100
AcDbSymbolTableRecord
100
AcDbTextStyleTableRecord
  2

 70
     1
 40
0.0
 41
1.0
 50
0.0
 71
     0
 42
2.5
  3
ltypeshp.shx
  4

  0
STYLE
  5
50
330
3
100
AcDbSymbolTableRecord
100
AcDbTextStyleTableRecord
  2
OKANO
 70
     0
 40
0.0
 41
1.0
 50
15.0
 71
     0
 42
5.0
  3
isocp.shx
  4
bigfont.shx
  0
ENDTAB
  0
TABLE
  2
VIEW
  5
6
330
0
100
AcDbSymbolTable
 70
     0
  0
ENDTAB
  0
TABLE
  2
UCS
  5
7
330
0
100
AcDbSymbolTable
 70
     0
  0
ENDTAB
  0
TABLE
  2
APPID
  5
9
330
0
100
AcDbSymbolTable
 70
     1
  0
APPID
  5
12
330
9
100
AcDbSymbolTableRecord
100
AcDbRegAppTableRecord
  2
ACAD
 70
     0
  0
ENDTAB
  0
TABLE
  2
DIMSTYLE
  5
A
330
0
100
AcDbSymbolTable
 70
     2
100
AcDbDimStyleTable
 71
     2
340
A2
340
27
  0
DIMSTYLE
105
27
330
A
100
AcDbSymbolTableRecord
100
AcDbDimStyleTableRecord
  2
ISO-25
 70
     0
 41
2.5
 42
0.625
 43
3.75
 44
1.25
 73
     0
 74
     0
 77
     1
 78
     8
140
2.5
141
2.5
143
0.03937007874016
147
0.625
171
     3
172
     1
271
     2
272
     2
274
     3
283
     0
284
     8
340
11
  0
DIMSTYLE
105
A2
102
{ACAD_REACTORS
330
59EF
330
59E2
330
59C3
330
559A
330
53FE
330
53F1
330
53C9
330
53BB
330
53A5
330
5398
330
52DB
330
52D9
330
52CC
330
52C6
330
520E
330
50DF
330
50CC
330
50BF
330
50B2
330
5023
330
5022
330
5021
330
4EC4
330
4EA2
330
4E81
330
4E6A
330
6911
330
643C
330
642F
330
6414
102
}
330
A
100
AcDbSymbolTableRecord
100
AcDbDimStyleTableRecord
  2
sunpo
 70
     0
 40
0.0
 41
3.0
 42
2.0
 43
8.0
 44
3.0
 73
     0
 74
     0
 77
     1
 78
     8
140
5.0
141
2.5
143
0.03937007874016
147
1.0
171
     3
172
     1
271
     2
272
     2
274
     3
283
     0
284
     8
340
50
341
9B
342
9B
  0
ENDTAB
  0
TABLE
  2
BLOCK_RECORD
  5
1
330
0
100
AcDbSymbolTable
 70
    32
  0
BLOCK_RECORD
  5
1F
330
1
100
AcDbSymbolTableRecord
100
AcDbBlockTableRecord
  2
*Model_Space
340
22
  0
BLOCK_RECORD
  5
1B
330
1
100
AcDbSymbolTableRecord
100
AcDbBlockTableRecord
  2
*Paper_Space
340
1E
  0
BLOCK_RECORD
  5
9B
330
1
100
AcDbSymbolTableRecord
100
AcDbBlockTableRecord
  2
_Closed
340
0
102
{BLKREFS
331
55A8
331
55A9
331
58AE
331
58AF
331
5A08
331
5A09
331
5A1A
331
5A1B
331
5A3B
331
5A3C
331
5D9A
331
5D9B
331
5DA3
331
5DA4
331
5DAC
331
5DB2
331
5DB3
331
5DBB
331
5DBC
331
5DC4
331
5DC5
331
5DCF
331
5DD0
331
5DD8
331
5DD9
331
5DE1
331
5DE2
331
5DEA
331
5DEB
331
5DF3
331
5DF4
331
5DFC
331
5E02
331
5E03
331
5E14
331
5E15
331
5E31
331
5E32
331
5E3A
331
5E3B
331
5E43
331
5E44
331
5E4C
331
5E4D
331
5E55
331
5E56
331
5E5E
331
5E5F
331
5E67
331
5E68
331
648B
331
648C
331
6494
331
6495
331
649D
331
649E
331
693F
331
6940
102
}
  0
BLOCK_RECORD
  5
1510
330
1
100
AcDbSymbolTableRecord
100
AcDbBlockTableRecord
  2
A$C10A573AC
340
0
  0
BLOCK_RECORD
  5
4E6B
330
1
100
AcDbSymbolTableRecord
100
AcDbBlockTableRecord
  2
*D2
340
0
  0
BLOCK_RECORD
  5
4E82
330
1
100
AcDbSymbolTableRecord
100
AcDbBlockTableRecord
  2
*D3
340
0
  0
BLOCK_RECORD
  5
4EA3
330
1
100
AcDbSymbolTableRecord
100
AcDbBlockTableRecord
  2
*D4
340
0
  0
BLOCK_RECORD
  5
4EC5
330
1
100
AcDbSymbolTableRecord
100
AcDbBlockTableRecord
  2
*D5
340
0
  0
BLOCK_RECORD
  5
5030
330
1
100
AcDbSymbolTableRecord
100
AcDbBlockTableRecord
  2
*D6
340
0
  0
BLOCK_RECORD
  5
503C
330
1
100
AcDbSymbolTableRecord
100
AcDbBlockTableRecord
  2
*D7
340
0
  0
BLOCK_RECORD
  5
5048
330
1
100
AcDbSymbolTableRecord
100
AcDbBlockTableRecord
  2
*D8
340
0
  0
BLOCK_RECORD
  5
50B3
330
1
100
AcDbSymbolTableRecord
100
AcDbBlockTableRecord
  2
*D9
340
0
  0
BLOCK_RECORD
  5
50C0
330
1
100
AcDbSymbolTableRecord
100
AcDbBlockTableRecord
  2
*D10
340
0
  0
BLOCK_RECORD
  5
50CD
330
1
100
AcDbSymbolTableRecord
100
AcDbBlockTableRecord
  2
*D11
340
0
  0
BLOCK_RECORD
  5
50E0
330
1
100
AcDbSymbolTableRecord
100
AcDbBlockTableRecord
  2
*D12
340
0
  0
BLOCK_RECORD
  5
520F
330
1
100
AcDbSymbolTableRecord
100
AcDbBlockTableRecord
  2
*D13
340
0
  0
BLOCK_RECORD
  5
52E9
330
1
100
AcDbSymbolTableRecord
100
AcDbBlockTableRecord
  2
*D14
340
0
  0
BLOCK_RECORD
  5
5301
330
1
100
AcDbSymbolTableRecord
100
AcDbBlockTableRecord
  2
*D15
340
0
  0
BLOCK_RECORD
  5
530D
330
1
100
AcDbSymbolTableRecord
100
AcDbBlockTableRecord
  2
*D16
340
0
  0
BLOCK_RECORD
  5
5325
330
1
100
AcDbSymbolTableRecord
100
AcDbBlockTableRecord
  2
*D17
340
0
  0
BLOCK_RECORD
  5
5399
330
1
100
AcDbSymbolTableRecord
100
AcDbBlockTableRecord
  2
*D18
340
0
  0
BLOCK_RECORD
  5
53A6
330
1
100
AcDbSymbolTableRecord
100
AcDbBlockTableRecord
  2
*D19
340
0
  0
BLOCK_RECORD
  5
53BC
330
1
100
AcDbSymbolTableRecord
100
AcDbBlockTableRecord
  2
*D20
340
0
  0
BLOCK_RECORD
  5
53CA
330
1
100
AcDbSymbolTableRecord
100
AcDbBlockTableRecord
  2
*D21
340
0
  0
BLOCK_RECORD
  5
53F2
330
1
100
AcDbSymbolTableRecord
100
AcDbBlockTableRecord
  2
*D22
340
0
  0
BLOCK_RECORD
  5
53FF
330
1
100
AcDbSymbolTableRecord
100
AcDbBlockTableRecord
  2
*D23
340
0
  0
BLOCK_RECORD
  5
559B
330
1
100
AcDbSymbolTableRecord
100
AcDbBlockTableRecord
  2
*D24
340
0
  0
BLOCK_RECORD
  5
59C4
330
1
100
AcDbSymbolTableRecord
100
AcDbBlockTableRecord
  2
*D25
340
0
  0
BLOCK_RECORD
  5
59E3
330
1
100
AcDbSymbolTableRecord
100
AcDbBlockTableRecord
  2
*D26
340
0
  0
BLOCK_RECORD
  5
59F0
330
1
100
AcDbSymbolTableRecord
100
AcDbBlockTableRecord
  2
*D27
340
0
  0
BLOCK_RECORD
  5
6415
330
1
100
AcDbSymbolTableRecord
100
AcDbBlockTableRecord
  2
*D28
340
0
  0
BLOCK_RECORD
  5
6430
330
1
100
AcDbSymbolTableRecord
100
AcDbBlockTableRecord
  2
*D29
340
0
  0
BLOCK_RECORD
  5
643D
330
1
100
AcDbSymbolTableRecord
100
AcDbBlockTableRecord
  2
*D30
340
0
  0
BLOCK_RECORD
  5
6912
330
1
100
AcDbSymbolTableRecord
100
AcDbBlockTableRecord
  2
*D31
340
0
  0
ENDTAB
  0
ENDSEC
  0
SECTION
  2
BLOCKS
  0
BLOCK
  5
20
330
1F
100
AcDbEntity
  8
0
100
AcDbBlockBegin
  2
*Model_Space
 70
     0
 10
0.0
 20
0.0
 30
0.0
  3
*Model_Space
  1

  0
ENDBLK
  5
21
330
1F
100
AcDbEntity
  8
0
100
AcDbBlockEnd
  0
BLOCK
  5
1C
330
1B
100
AcDbEntity
 67
     1
  8
0
100
AcDbBlockBegin
  2
*Paper_Space
 70
     0
 10
0.0
 20
0.0
 30
0.0
  3
*Paper_Space
  1

  0
ENDBLK
  5
1D
330
1B
100
AcDbEntity
 67
     1
  8
0
100
AcDbBlockEnd
  0
BLOCK
  5
A0
330
9B
100
AcDbEntity
  8
0
100
AcDbBlockBegin
  2
_Closed
 70
     0
 10
0.0
 20
0.0
 30
0.0
  3
_Closed
  1

  0
LINE
  5
9C
330
9B
100
AcDbEntity
  8
0
 62
     0
370
    -2
100
AcDbLine
 10
-1.0
 20
0.1666666666666666
 30
0.0
 11
0.0
 21
0.0
 31
0.0
  0
LINE
  5
9D
330
9B
100
AcDbEntity
  8
0
 62
     0
370
    -2
100
AcDbLine
 10
0.0
 20
0.0
 30
0.0
 11
-1.0
 21
-0.1666666666666666
 31
0.0
  0
LINE
  5
9E
330
9B
100
AcDbEntity
  8
0
 62
     0
370
    -2
100
AcDbLine
 10
-1.0
 20
0.1666666666666666
 30
0.0
 11
-1.0
 21
-0.1666666666666666
 31
0.0
  0
LINE
  5
9F
330
9B
100
AcDbEntity
  8
0
 62
     0
370
    -2
100
AcDbLine
 10
0.0
 20
0.0
 30
0.0
 11
-1.0
 21
0.0
 31
0.0
  0
ENDBLK
  5
A1
330
9B
100
AcDbEntity
  8
0
100
AcDbBlockEnd
  0
BLOCK
  5
155B
330
1510
100
AcDbEntity
  8
0
100
AcDbBlockBegin
  2
A$C10A573AC
 70
     0
 10
0.0
 20
0.0
 30
0.0
  3
A$C10A573AC
  1

  0
TEXT
  5
1511
330
1510
100
AcDbEntity
  8
文字
100
AcDbText
 10
0.9844302777919438
 20
5.224957122252135
 30
0.0
 40
3.0
  1
Materal : Steel.
 51
15.0
  7
OKANO
100
AcDbText
  0
TEXT
  5
1512
330
1510
100
AcDbEntity
  8
文字
100
AcDbText
 10
-0.1141909619694843
 20
0.7500001922403499
 30
0.0
 40
3.0
  1
Surface treatment : Electro galvanized.
 51
15.0
  7
OKANO
100
AcDbText
  0
TEXT
  5
1513
330
1510
100
AcDbEntity
  8
文字
100
AcDbText
 10
-0.4901926332574931
 20
9.159967445193728
 30
0.0
 40
3.0
  1
5 TORGUE SCREW  M5-6
 51
15.0
  7
OKANO
100
AcDbText
  0
TEXT
  5
1514
330
1510
100
AcDbEntity
  8
文字
100
AcDbText
 10
1.364713526390005
 20
78.88822913323082
 30
0.0
 40
3.0
  1
Special standard,
 51
15.0
  7
OKANO
100
AcDbText
  0
TEXT
  5
1515
330
1510
100
AcDbEntity
  8
文字
100
AcDbText
 10
92.88160823408942
 20
89.92753849837379
 30
0.0
 40
3.0
  1
Screw Type
 51
15.0
  7
OKANO
100
AcDbText
  0
LINE
  5
1516
330
1510
100
AcDbEntity
  8
太線
100
AcDbLine
 10
113.9464587597784
 20
81.93930390144641
 30
0.0
 11
112.4464587597784
 21
81.93930390144641
 31
0.0
  0
LINE
  5
1517
330
1510
100
AcDbEntity
  8
太線
100
AcDbLine
 10
112.4464587597784
 20
76.9393039014464
 30
0.0
 11
121.4644995438761
 21
76.9393039014464
 31
0.0
  0
TEXT
  5
1518
330
1510
100
AcDbEntity
  8
文字
100
AcDbText
 10
93.46068240437217
 20
77.96976862235396
 30
0.0
 40
2.0
  1
17-30
 51
15.0
  7
OKANO
100
AcDbText
  0
LINE
  5
1519
330
1510
100
AcDbEntity
  8
太線
100
AcDbLine
 10
111.9464587597784
 20
81.43930390144641
 30
0.0
 11
111.9464587597784
 21
77.4393039014464
 31
0.0
  0
LINE
  5
151A
330
1510
100
AcDbEntity
  8
太線
100
AcDbLine
 10
91.94645875977846
 20
81.43930390144641
 30
0.0
 11
91.94645875977846
 21
77.43930390144639
 31
0.0
  0
LINE
  5
151B
330
1510
100
AcDbEntity
  8
太線
100
AcDbLine
 10
101.9644995438761
 20
77.4393039014464
 30
0.0
 11
101.9644995438761
 21
81.43930390144641
 31
0.0
  0
LINE
  5
151C
330
1510
100
AcDbEntity
  8
太線
100
AcDbLine
 10
92.44645875977846
 20
76.9393039014464
 30
0.0
 11
101.4644995438761
 21
76.9393039014464
 31
0.0
  0
ARC
  5
151D
330
1510
100
AcDbEntity
  8
太線
100
AcDbCircle
 10
92.44645875977846
 20
77.43930390144639
 30
0.0
 40
0.5
100
AcDbArc
 50
180.0
 51
270.0
  0
ARC
  5
151E
330
1510
100
AcDbEntity
  8
太線
100
AcDbCircle
 10
101.4644995438761
 20
77.4393039014464
 30
0.0
 40
0.5
100
AcDbArc
 50
270.0
 51
0.0
  0
ARC
  5
151F
330
1510
100
AcDbEntity
  8
太線
100
AcDbCircle
 10
112.4464587597784
 20
77.4393039014464
 30
0.0
 40
0.5
100
AcDbArc
 50
180.0
 51
270.0
  0
LINE
  5
1520
330
1510
100
AcDbEntity
  8
想像線
100
AcDbLine
 10
93.94645875977847
 20
81.93930390144641
 30
0.0
 11
99.96449954387617
 21
81.93930390144641
 31
0.0
  0
LINE
  5
1521
330
1510
100
AcDbEntity
  8
極太線
100
AcDbLine
 10
96.38762957111168
 20
85.43930390144641
 30
0.0
 11
97.50528794844525
 21
85.43930390144641
 31
0.0
  0
CIRCLE
  5
1522
330
1510
100
AcDbEntity
  8
太線
100
AcDbCircle
 10
96.94645875977847
 20
85.43930390144641
 30
0.0
 40
0.5588291886667776
  0
LINE
  5
1523
330
1510
100
AcDbEntity
  8
太線
100
AcDbLine
 10
99.46449954387617
 20
86.93930390144641
 30
0.0
 11
94.44645875977846
 21
86.93930390144641
 31
0.0
  0
LINE
  5
1524
330
1510
100
AcDbEntity
  8
太線
100
AcDbLine
 10
93.94645875977847
 20
86.43930390144641
 30
0.0
 11
93.94645875977847
 21
81.93930390144641
 31
0.0
  0
ARC
  5
1525
330
1510
100
AcDbEntity
  8
太線
100
AcDbCircle
 10
92.44645875977846
 20
81.43930390144641
 30
0.0
 40
0.5
100
AcDbArc
 50
90.0
 51
180.0
  0
LINE
  5
1526
330
1510
100
AcDbEntity
  8
太線
100
AcDbLine
 10
93.94645875977847
 20
81.93930390144641
 30
0.0
 11
92.44645875977846
 21
81.93930390144641
 31
0.0
  0
ARC
  5
1527
330
1510
100
AcDbEntity
  8
太線
100
AcDbCircle
 10
94.44645875977846
 20
86.43930390144641
 30
0.0
 40
0.5
100
AcDbArc
 50
90.0
 51
180.0
  0
LINE
  5
1528
330
1510
100
AcDbEntity
  8
太線
100
AcDbLine
 10
99.96449954387617
 20
81.93930390144641
 30
0.0
 11
99.96449954387617
 21
86.43930390144641
 31
0.0
  0
LINE
  5
1529
330
1510
100
AcDbEntity
  8
太線
100
AcDbLine
 10
101.4644995438761
 20
81.93930390144641
 30
0.0
 11
99.96449954387617
 21
81.93930390144641
 31
0.0
  0
ARC
  5
152A
330
1510
100
AcDbEntity
  8
太線
100
AcDbCircle
 10
101.4644995438761
 20
81.43930390144641
 30
0.0
 40
0.5
100
AcDbArc
 50
0.0
 51
90.0
  0
ARC
  5
152B
330
1510
100
AcDbEntity
  8
太線
100
AcDbCircle
 10
99.46449954387617
 20
86.43930390144641
 30
0.0
 40
0.5
100
AcDbArc
 50
0.0
 51
90.0
  0
LINE
  5
152C
330
1510
100
AcDbEntity
  8
極太線
100
AcDbLine
 10
96.94645875977847
 20
85.99813309011318
 30
0.0
 11
96.94645875977847
 21
84.88047471277964
 31
0.0
  0
ARC
  5
152D
330
1510
100
AcDbEntity
  8
太線
100
AcDbCircle
 10
112.4464587597784
 20
81.43930390144641
 30
0.0
 40
0.5
100
AcDbArc
 50
90.0
 51
180.0
  0
TEXT
  5
152E
330
1510
100
AcDbEntity
  8
文字
100
AcDbText
 10
134.3819212586066
 20
78.16263579228063
 30
0.0
 40
2.0
  1
101
 51
15.0
  7
OKANO
100
AcDbText
  0
TEXT
  5
152F
330
1510
100
AcDbEntity
  8
文字
100
AcDbText
 10
113.3422276612066
 20
77.96976862235396
 30
0.0
 40
2.0
  1
38-83
 51
15.0
  7
OKANO
100
AcDbText
  0
LINE
  5
1530
330
1510
100
AcDbEntity
  8
太線
100
AcDbLine
 10
141.9825403279738
 20
77.4393039014464
 30
0.0
 11
141.9825403279738
 21
81.43930390144641
 31
0.0
  0
LINE
  5
1531
330
1510
100
AcDbEntity
  8
太線
100
AcDbLine
 10
131.9644995438761
 20
81.43930390144641
 30
0.0
 11
131.9644995438761
 21
77.4393039014464
 31
0.0
  0
LINE
  5
1532
330
1510
100
AcDbEntity
  8
太線
100
AcDbLine
 10
121.9644995438761
 20
77.4393039014464
 30
0.0
 11
121.9644995438761
 21
81.43930390144641
 31
0.0
  0
ARC
  5
1533
330
1510
100
AcDbEntity
  8
太線
100
AcDbCircle
 10
121.4644995438761
 20
77.4393039014464
 30
0.0
 40
0.5
100
AcDbArc
 50
270.0
 51
0.0
  0
LINE
  5
1534
330
1510
100
AcDbEntity
  8
太線
100
AcDbLine
 10
132.4644995438761
 20
76.9393039014464
 30
0.0
 11
141.4825403279738
 21
76.9393039014464
 31
0.0
  0
ARC
  5
1535
330
1510
100
AcDbEntity
  8
太線
100
AcDbCircle
 10
132.4644995438761
 20
77.4393039014464
 30
0.0
 40
0.5
100
AcDbArc
 50
180.0
 51
270.0
  0
ARC
  5
1536
330
1510
100
AcDbEntity
  8
太線
100
AcDbCircle
 10
141.4825403279738
 20
77.4393039014464
 30
0.0
 40
0.5
100
AcDbArc
 50
270.0
 51
0.0
  0
ARC
  5
1537
330
1510
100
AcDbEntity
  8
太線
100
AcDbCircle
 10
121.4644995438761
 20
81.43930390144641
 30
0.0
 40
0.5
100
AcDbArc
 50
0.0
 51
90.0
  0
LINE
  5
1538
330
1510
100
AcDbEntity
  8
太線
100
AcDbLine
 10
119.9644995438761
 20
81.93930390144641
 30
0.0
 11
119.9644995438761
 21
86.43930390144641
 31
0.0
  0
LINE
  5
1539
330
1510
100
AcDbEntity
  8
太線
100
AcDbLine
 10
113.9464587597784
 20
86.43930390144641
 30
0.0
 11
113.9464587597784
 21
81.93930390144641
 31
0.0
  0
LINE
  5
153A
330
1510
100
AcDbEntity
  8
想像線
100
AcDbLine
 10
113.9464587597784
 20
81.93930390144641
 30
0.0
 11
119.9644995438761
 21
81.93930390144641
 31
0.0
  0
LINE
  5
153B
330
1510
100
AcDbEntity
  8
太線
100
AcDbLine
 10
121.4644995438761
 20
81.93930390144641
 30
0.0
 11
119.9644995438761
 21
81.93930390144641
 31
0.0
  0
LINE
  5
153C
330
1510
100
AcDbEntity
  8
太線
100
AcDbLine
 10
119.4644995438761
 20
86.93930390144641
 30
0.0
 11
114.4464587597784
 21
86.93930390144641
 31
0.0
  0
ARC
  5
153D
330
1510
100
AcDbEntity
  8
太線
100
AcDbCircle
 10
114.4464587597784
 20
86.43930390144641
 30
0.0
 40
0.5
100
AcDbArc
 50
90.0
 51
180.0
  0
CIRCLE
  5
153E
330
1510
100
AcDbEntity
  8
太線
100
AcDbCircle
 10
115.4464587597784
 20
85.43930390144641
 30
0.0
 40
0.5588291886667776
  0
LINE
  5
153F
330
1510
100
AcDbEntity
  8
極太線
100
AcDbLine
 10
115.4464587597784
 20
85.99813309011318
 30
0.0
 11
115.4464587597784
 21
84.88047471277964
 31
0.0
  0
LINE
  5
1540
330
1510
100
AcDbEntity
  8
極太線
100
AcDbLine
 10
114.8876295711116
 20
85.43930390144641
 30
0.0
 11
116.0052879484452
 21
85.43930390144641
 31
0.0
  0
ARC
  5
1541
330
1510
100
AcDbEntity
  8
太線
100
AcDbCircle
 10
119.4644995438761
 20
86.43930390144641
 30
0.0
 40
0.5
100
AcDbArc
 50
0.0
 51
90.0
  0
LINE
  5
1542
330
1510
100
AcDbEntity
  8
極太線
100
AcDbLine
 10
117.9056703552094
 20
85.43930390144641
 30
0.0
 11
119.0233287325429
 21
85.43930390144641
 31
0.0
  0
LINE
  5
1543
330
1510
100
AcDbEntity
  8
極太線
100
AcDbLine
 10
118.4644995438761
 20
85.99813309011318
 30
0.0
 11
118.4644995438761
 21
84.88047471277964
 31
0.0
  0
CIRCLE
  5
1544
330
1510
100
AcDbEntity
  8
太線
100
AcDbCircle
 10
118.4644995438761
 20
85.43930390144641
 30
0.0
 40
0.5588291886667776
  0
LINE
  5
1545
330
1510
100
AcDbEntity
  8
想像線
100
AcDbLine
 10
133.9644995438761
 20
81.93930390144641
 30
0.0
 11
139.9825403279738
 21
81.93930390144641
 31
0.0
  0
LINE
  5
1546
330
1510
100
AcDbEntity
  8
極太線
100
AcDbLine
 10
137.9237111393071
 20
85.43930390144641
 30
0.0
 11
139.0413695166406
 21
85.43930390144641
 31
0.0
  0
CIRCLE
  5
1547
330
1510
100
AcDbEntity
  8
太線
100
AcDbCircle
 10
138.4825403279738
 20
85.43930390144641
 30
0.0
 40
0.5588291886667776
  0
CIRCLE
  5
1548
330
1510
100
AcDbEntity
  8
太線
100
AcDbCircle
 10
138.4825403279738
 20
83.26342923362075
 30
0.0
 40
0.5588291886667776
  0
LINE
  5
1549
330
1510
100
AcDbEntity
  8
極太線
100
AcDbLine
 10
137.9237111393071
 20
83.26342923362075
 30
0.0
 11
139.0413695166406
 21
83.26342923362075
 31
0.0
  0
LINE
  5
154A
330
1510
100
AcDbEntity
  8
太線
100
AcDbLine
 10
139.4825403279738
 20
86.93930390144641
 30
0.0
 11
134.4644995438761
 21
86.93930390144641
 31
0.0
  0
LINE
  5
154B
330
1510
100
AcDbEntity
  8
太線
100
AcDbLine
 10
133.9644995438761
 20
86.43930390144641
 30
0.0
 11
133.9644995438761
 21
81.93930390144641
 31
0.0
  0
ARC
  5
154C
330
1510
100
AcDbEntity
  8
太線
100
AcDbCircle
 10
132.4644995438761
 20
81.43930390144641
 30
0.0
 40
0.5
100
AcDbArc
 50
90.0
 51
180.0
  0
LINE
  5
154D
330
1510
100
AcDbEntity
  8
太線
100
AcDbLine
 10
133.9644995438761
 20
81.93930390144641
 30
0.0
 11
132.4644995438761
 21
81.93930390144641
 31
0.0
  0
LINE
  5
154E
330
1510
100
AcDbEntity
  8
極太線
100
AcDbLine
 10
134.9056703552093
 20
83.26342923362075
 30
0.0
 11
136.0233287325429
 21
83.26342923362075
 31
0.0
  0
LINE
  5
154F
330
1510
100
AcDbEntity
  8
極太線
100
AcDbLine
 10
135.4644995438761
 20
83.82225842228752
 30
0.0
 11
135.4644995438761
 21
82.70460004495395
 31
0.0
  0
CIRCLE
  5
1550
330
1510
100
AcDbEntity
  8
太線
100
AcDbCircle
 10
135.4644995438761
 20
83.26342923362075
 30
0.0
 40
0.5588291886667776
  0
ARC
  5
1551
330
1510
100
AcDbEntity
  8
太線
100
AcDbCircle
 10
134.4644995438761
 20
86.43930390144641
 30
0.0
 40
0.5
100
AcDbArc
 50
90.0
 51
180.0
  0
CIRCLE
  5
1552
330
1510
100
AcDbEntity
  8
太線
100
AcDbCircle
 10
135.4644995438761
 20
85.43930390144641
 30
0.0
 40
0.5588291886667776
  0
LINE
  5
1553
330
1510
100
AcDbEntity
  8
極太線
100
AcDbLine
 10
135.4644995438761
 20
85.99813309011318
 30
0.0
 11
135.4644995438761
 21
84.88047471277964
 31
0.0
  0
LINE
  5
1554
330
1510
100
AcDbEntity
  8
極太線
100
AcDbLine
 10
134.9056703552093
 20
85.43930390144641
 30
0.0
 11
136.0233287325429
 21
85.43930390144641
 31
0.0
  0
LINE
  5
1555
330
1510
100
AcDbEntity
  8
太線
100
AcDbLine
 10
139.9825403279738
 20
81.93930390144641
 30
0.0
 11
139.9825403279738
 21
86.43930390144641
 31
0.0
  0
ARC
  5
1556
330
1510
100
AcDbEntity
  8
太線
100
AcDbCircle
 10
141.4825403279738
 20
81.43930390144641
 30
0.0
 40
0.5
100
AcDbArc
 50
0.0
 51
90.0
  0
LINE
  5
1557
330
1510
100
AcDbEntity
  8
極太線
100
AcDbLine
 10
138.4825403279738
 20
83.82225842228752
 30
0.0
 11
138.4825403279738
 21
82.70460004495395
 31
0.0
  0
LINE
  5
1558
330
1510
100
AcDbEntity
  8
太線
100
AcDbLine
 10
141.4825403279738
 20
81.93930390144641
 30
0.0
 11
139.9825403279738
 21
81.93930390144641
 31
0.0
  0
ARC
  5
1559
330
1510
100
AcDbEntity
  8
太線
100
AcDbCircle
 10
139.4825403279738
 20
86.43930390144641
 30
0.0
 40
0.5
100
AcDbArc
 50
0.0
 51
90.0
  0
LINE
  5
155A
330
1510
100
AcDbEntity
  8
極太線
100
AcDbLine
 10
138.4825403279738
 20
85.99813309011318
 30
0.0
 11
138.4825403279738
 21
84.88047471277964
 31
0.0
  0
ENDBLK
  5
155C
330
1510
100
AcDbEntity
  8
0
100
AcDbBlockEnd
  0
BLOCK
  5
4E75
330
4E6B
100
AcDbEntity
  8
0
100
AcDbBlockBegin
  2
*D2
 70
     1
 10
0.0
 20
0.0
 30
0.0
  3
*D2
  1

  0
LINE
  5
5E40
330
4E6B
100
AcDbEntity
  8
寸法線
 62
     0
370
    -2
100
AcDbLine
 10
639.8871700503873
 20
657.7968859442951
 30
0.0
 11
604.3985664824973
 21
657.7968859442951
 31
0.0
  0
LINE
  5
5E41
330
4E6B
100
AcDbEntity
  8
寸法線
 62
     0
370
    -2
100
AcDbLine
 10
640.6056804385229
 20
622.6215070795838
 30
0.0
 11
604.3985664824973
 21
622.6215070795838
 31
0.0
  0
LINE
  5
5E42
330
4E6B
100
AcDbEntity
  8
寸法線
 62
     0
370
    -2
100
AcDbLine
 10
607.3985664824972
 20
654.7968859442951
 30
0.0
 11
607.3985664824972
 21
625.6215070795838
 31
0.0
  0
INSERT
  5
5E43
330
4E6B
100
AcDbEntity
  8
寸法線
 62
     0
370
    -2
100
AcDbBlockReference
  2
_Closed
 10
607.3985664824972
 20
657.7968859442951
 30
0.0
 41
3.0
 42
3.0
 43
3.0
 50
90.0
  0
INSERT
  5
5E44
330
4E6B
100
AcDbEntity
  8
寸法線
 62
     0
370
    -2
100
AcDbBlockReference
  2
_Closed
 10
607.3985664824972
 20
622.6215070795838
 30
0.0
 41
3.0
 42
3.0
 43
3.0
 50
270.0
  0
MTEXT
  5
5E45
330
4E6B
100
AcDbEntity
  8
寸法線
 62
     0
100
AcDbMText
 10
598.8985664824971
 20
640.2091965119396
 30
0.0
 40
15.0
 41
0.0
 71
     5
 72
     1
  1
17
  7
OKANO
 11
0.0000000000000001
 21
1.0
 31
0.0
 73
     1
 44
1.0
  0
POINT
  5
5E46
330
4E6B
100
AcDbEntity
  8
Defpoints
 62
     0
100
AcDbPoint
 10
641.8871700503873
 20
657.7968859442951
 30
0.0
  0
POINT
  5
5E47
330
4E6B
100
AcDbEntity
  8
Defpoints
 62
     0
100
AcDbPoint
 10
642.605680438523
 20
622.6215070795838
 30
0.0
  0
POINT
  5
5E48
330
4E6B
100
AcDbEntity
  8
Defpoints
 62
     0
100
AcDbPoint
 10
607.3985664824972
 20
622.6215070795838
 30
0.0
  0
ENDBLK
  5
4E76
330
4E6B
100
AcDbEntity
  8
0
100
AcDbBlockEnd
  0
BLOCK
  5
4E8D
330
4E82
100
AcDbEntity
  8
0
100
AcDbBlockBegin
  2
*D3
 70
     1
 10
0.0
 20
0.0
 30
0.0
  3
*D3
  1

  0
LINE
  5
5E52
330
4E82
100
AcDbEntity
  8
寸法線
 62
     0
370
    -2
100
AcDbLine
 10
643.8640914191873
 20
624.8149883797205
 30
0.0
 11
673.129994962414
 21
606.435492754043
 31
0.0
  0
LINE
  5
5E53
330
4E82
100
AcDbEntity
  8
寸法線
 62
     0
370
    -2
100
AcDbLine
 10
657.3356924290528
 20
646.2659891991744
 30
0.0
 11
686.6015959722796
 21
627.8864935734969
 31
0.0
  0
LINE
  5
5E54
330
4E82
100
AcDbEntity
  8
寸法線
 62
     0
370
    -2
100
AcDbLine
 10
672.1849568372777
 20
610.5715419488713
 30
0.0
 11
682.4655467774513
 21
626.9414554483606
 31
0.0
  0
INSERT
  5
5E55
330
4E82
100
AcDbEntity
  8
寸法線
 62
     0
370
    -2
100
AcDbBlockReference
  2
_Closed
 10
670.5894513024318
 20
608.030998288889
 30
0.0
 41
3.0
 42
3.0
 43
3.0
 50
237.8704655114397
  0
INSERT
  5
5E56
330
4E82
100
AcDbEntity
  8
寸法線
 62
     0
370
    -2
100
AcDbBlockReference
  2
_Closed
 10
684.0610523122973
 20
629.4819991083429
 30
0.0
 41
3.0
 42
3.0
 43
3.0
 50
57.87046551143979
  0
MTEXT
  5
5E57
330
4E82
100
AcDbEntity
  8
寸法線
 62
     0
100
AcDbMText
 10
670.1270447707481
 20
623.2770977140128
 30
0.0
 40
15.0
 41
0.0
 71
     5
 72
     1
  1
13
  7
OKANO
 11
0.5318351782819883
 21
0.8468478866607426
 31
0.0
 73
     1
 44
1.0
  0
POINT
  5
5E58
330
4E82
100
AcDbEntity
  8
Defpoints
 62
     0
100
AcDbPoint
 10
642.1703956458657
 20
625.8786587362846
 30
0.0
  0
POINT
  5
5E59
330
4E82
100
AcDbEntity
  8
Defpoints
 62
     0
100
AcDbPoint
 10
655.6419966557314
 20
647.3296595557384
 30
0.0
  0
POINT
  5
5E5A
330
4E82
100
AcDbEntity
  8
Defpoints
 62
     0
100
AcDbPoint
 10
684.0610523122973
 20
629.4819991083429
 30
0.0
  0
ENDBLK
  5
4E8E
330
4E82
100
AcDbEntity
  8
0
100
AcDbBlockEnd
  0
BLOCK
  5
4EAE
330
4EA3
100
AcDbEntity
  8
0
100
AcDbBlockBegin
  2
*D4
 70
     1
 10
0.0
 20
0.0
 30
0.0
  3
*D4
  1

  0
LINE
  5
5E37
330
4EA3
100
AcDbEntity
  8
寸法線
 62
     0
370
    -2
100
AcDbLine
 10
626.6807342297161
 20
674.0107084808087
 30
0.0
 11
611.176644066867
 21
674.0107084808087
 31
0.0
  0
LINE
  5
5E38
330
4EA3
100
AcDbEntity
  8
寸法線
 62
     0
370
    -2
100
AcDbLine
 10
641.6200923679753
 20
698.3343808986901
 30
0.0
 11
611.176644066867
 21
698.3343808986901
 31
0.0
  0
LINE
  5
5E39
330
4EA3
100
AcDbEntity
  8
寸法線
 62
     0
370
    -2
100
AcDbLine
 10
614.176644066867
 20
677.0107084808087
 30
0.0
 11
614.176644066867
 21
695.3343808986901
 31
0.0
  0
INSERT
  5
5E3A
330
4EA3
100
AcDbEntity
  8
寸法線
 62
     0
370
    -2
100
AcDbBlockReference
  2
_Closed
 10
614.176644066867
 20
674.0107084808087
 30
0.0
 41
3.0
 42
3.0
 43
3.0
 50
270.0
  0
INSERT
  5
5E3B
330
4EA3
100
AcDbEntity
  8
寸法線
 62
     0
370
    -2
100
AcDbBlockReference
  2
_Closed
 10
614.176644066867
 20
698.3343808986901
 30
0.0
 41
3.0
 42
3.0
 43
3.0
 50
90.0
  0
MTEXT
  5
5E3C
330
4EA3
100
AcDbEntity
  8
寸法線
 62
     0
100
AcDbMText
 10
605.676644066867
 20
686.1725446897495
 30
0.0
 40
15.0
 41
0.0
 71
     5
 72
     1
  1
10
  7
OKANO
 11
0.0000000000000001
 21
1.0
 31
0.0
 73
     1
 44
1.0
  0
POINT
  5
5E3D
330
4EA3
100
AcDbEntity
  8
Defpoints
 62
     0
100
AcDbPoint
 10
628.680734229716
 20
674.0107084808087
 30
0.0
  0
POINT
  5
5E3E
330
4EA3
100
AcDbEntity
  8
Defpoints
 62
     0
100
AcDbPoint
 10
643.6200923679753
 20
698.3343808986901
 30
0.0
  0
POINT
  5
5E3F
330
4EA3
100
AcDbEntity
  8
Defpoints
 62
     0
100
AcDbPoint
 10
614.176644066867
 20
698.3343808986901
 30
0.0
  0
ENDBLK
  5
4EAF
330
4EA3
100
AcDbEntity
  8
0
100
AcDbBlockEnd
  0
BLOCK
  5
4ED1
330
4EC5
100
AcDbEntity
  8
0
100
AcDbBlockBegin
  2
*D5
 70
     1
 10
0.0
 20
0.0
 30
0.0
  3
*D5
  1

  0
LINE
  5
5E49
330
4EC5
100
AcDbEntity
  8
寸法線
 62
     0
370
    -2
100
AcDbLine
 10
625.7423552984359
 20
565.6617731170547
 30
0.0
 11
604.1563954876687
 21
565.6617731170547
 31
0.0
  0
LINE
  5
5E4A
330
4EC5
100
AcDbEntity
  8
寸法線
 62
     0
370
    -2
100
AcDbLine
 10
625.7423552984359
 20
580.1799395725367
 30
0.0
 11
604.1563954876687
 21
580.1799395725367
 31
0.0
  0
LINE
  5
5E4B
330
4EC5
100
AcDbEntity
  8
寸法線
 62
     0
370
    -2
100
AcDbLine
 10
607.1563954876687
 20
568.6617731170547
 30
0.0
 11
607.1563954876687
 21
577.1799395725367
 31
0.0
  0
INSERT
  5
5E4C
330
4EC5
100
AcDbEntity
  8
寸法線
 62
     0
370
    -2
100
AcDbBlockReference
  2
_Closed
 10
607.1563954876687
 20
565.6617731170547
 30
0.0
 41
3.0
 42
3.0
 43
3.0
 50
270.0
  0
INSERT
  5
5E4D
330
4EC5
100
AcDbEntity
  8
寸法線
 62
     0
370
    -2
100
AcDbBlockReference
  2
_Closed
 10
607.1563954876687
 20
580.1799395725367
 30
0.0
 41
3.0
 42
3.0
 43
3.0
 50
90.0
  0
MTEXT
  5
5E4E
330
4EC5
100
AcDbEntity
  8
寸法線
 62
     0
100
AcDbMText
 10
598.6563954876686
 20
572.9208563447959
 30
0.0
 40
15.0
 41
0.0
 71
     5
 72
     1
  1
7
  7
OKANO
 11
0.0000000000000001
 21
1.0
 31
0.0
 73
     1
 44
1.0
  0
POINT
  5
5E4F
330
4EC5
100
AcDbEntity
  8
Defpoints
 62
     0
100
AcDbPoint
 10
627.742355298436
 20
565.6617731170547
 30
0.0
  0
POINT
  5
5E50
330
4EC5
100
AcDbEntity
  8
Defpoints
 62
     0
100
AcDbPoint
 10
627.742355298436
 20
580.1799395725367
 30
0.0
  0
POINT
  5
5E51
330
4EC5
100
AcDbEntity
  8
Defpoints
 62
     0
100
AcDbPoint
 10
607.1563954876687
 20
580.1799395725367
 30
0.0
  0
ENDBLK
  5
4ED2
330
4EC5
100
AcDbEntity
  8
0
100
AcDbBlockEnd
  0
BLOCK
  5
503A
330
5030
100
AcDbEntity
  8
0
100
AcDbBlockBegin
  2
*D6
 70
     1
 10
0.0
 20
0.0
 30
0.0
  3
*D6
  1

  0
LINE
  5
58AB
330
5030
100
AcDbEntity
  8
寸法線
 62
     0
370
    -2
100
AcDbLine
 10
-371.2581161034281
 20
227.5316390179589
 30
0.0
 11
-371.2581161034281
 21
255.0850539124705
 31
0.0
  0
LINE
  5
58AC
330
5030
100
AcDbEntity
  8
寸法線
 62
     0
370
    -2
100
AcDbLine
 10
-255.2581161034281
 20
227.5316390179589
 30
0.0
 11
-255.2581161034281
 21
255.0850539124705
 31
0.0
  0
LINE
  5
58AD
330
5030
100
AcDbEntity
  8
寸法線
 62
     0
370
    -2
100
AcDbLine
 10
-368.2581161034281
 20
252.0850539124706
 30
0.0
 11
-258.2581161034281
 21
252.0850539124706
 31
0.0
  0
INSERT
  5
58AE
330
5030
100
AcDbEntity
  8
寸法線
 62
     0
370
    -2
100
AcDbBlockReference
  2
_Closed
 10
-371.2581161034281
 20
252.0850539124706
 30
0.0
 41
3.0
 42
3.0
 43
3.0
 50
180.0
  0
INSERT
  5
58AF
330
5030
100
AcDbEntity
  8
寸法線
 62
     0
370
    -2
100
AcDbBlockReference
  2
_Closed
 10
-255.2581161034281
 20
252.0850539124706
 30
0.0
 41
3.0
 42
3.0
 43
3.0
  0
MTEXT
  5
58B0
330
5030
100
AcDbEntity
  8
寸法線
 62
     0
100
AcDbMText
 10
-313.2581161034281
 20
258.0850539124706
 30
0.0
 40
10.0
 41
0.0
 71
     5
 72
     1
  1
60
  7
OKANO
 73
     1
 44
1.0
  0
POINT
  5
58B1
330
5030
100
AcDbEntity
  8
Defpoints
 62
     0
100
AcDbPoint
 10
-371.2581161034281
 20
225.5316390179589
 30
0.0
  0
POINT
  5
58B2
330
5030
100
AcDbEntity
  8
Defpoints
 62
     0
100
AcDbPoint
 10
-255.2581161034281
 20
225.5316390179589
 30
0.0
  0
POINT
  5
58B3
330
5030
100
AcDbEntity
  8
Defpoints
 62
     0
100
AcDbPoint
 10
-255.2581161034281
 20
252.0850539124706
 30
0.0
  0
ENDBLK
  5
503B
330
5030
100
AcDbEntity
  8
0
100
AcDbBlockEnd
  0
BLOCK
  5
5046
330
503C
100
AcDbEntity
  8
0
100
AcDbBlockBegin
  2
*D7
 70
     1
 10
0.0
 20
0.0
 30
0.0
  3
*D7
  1

  0
LINE
  5
5DC1
330
503C
100
AcDbEntity
  8
寸法線
 62
     0
370
    -2
100
AcDbLine
 10
-357.2581161034281
 20
203.5316390179589
 30
0.0
 11
-357.2581161034281
 21
167.2288247787394
 31
0.0
  0
LINE
  5
5DC2
330
503C
100
AcDbEntity
  8
寸法線
 62
     0
370
    -2
100
AcDbLine
 10
-385.2581161034281
 20
203.5316390179589
 30
0.0
 11
-385.2581161034281
 21
167.2288247787394
 31
0.0
  0
LINE
  5
5DC3
330
503C
100
AcDbEntity
  8
寸法線
 62
     0
370
    -2
100
AcDbLine
 10
-360.2581161034281
 20
170.2288247787394
 30
0.0
 11
-382.2581161034282
 21
170.2288247787394
 31
0.0
  0
INSERT
  5
5DC4
330
503C
100
AcDbEntity
  8
寸法線
 62
     0
370
    -2
100
AcDbBlockReference
  2
_Closed
 10
-357.2581161034281
 20
170.2288247787394
 30
0.0
 41
3.0
 42
3.0
 43
3.0
  0
INSERT
  5
5DC5
330
503C
100
AcDbEntity
  8
寸法線
 62
     0
370
    -2
100
AcDbBlockReference
  2
_Closed
 10
-385.2581161034281
 20
170.2288247787394
 30
0.0
 41
3.0
 42
3.0
 43
3.0
 50
180.0
  0
MTEXT
  5
5DC6
330
503C
100
AcDbEntity
  8
寸法線
 62
     0
100
AcDbMText
 10
-371.2581161034281
 20
178.7288247787394
 30
0.0
 40
15.0
 41
0.0
 71
     5
 72
     1
  1
14
  7
OKANO
 73
     1
 44
1.0
  0
POINT
  5
5DC7
330
503C
100
AcDbEntity
  8
Defpoints
 62
     0
100
AcDbPoint
 10
-357.2581161034281
 20
205.5316390179589
 30
0.0
  0
POINT
  5
5DC8
330
503C
100
AcDbEntity
  8
Defpoints
 62
     0
100
AcDbPoint
 10
-385.2581161034281
 20
205.5316390179589
 30
0.0
  0
POINT
  5
5DC9
330
503C
100
AcDbEntity
  8
Defpoints
 62
     0
100
AcDbPoint
 10
-385.2581161034281
 20
170.2288247787394
 30
0.0
  0
ENDBLK
  5
5047
330
503C
100
AcDbEntity
  8
0
100
AcDbBlockEnd
  0
BLOCK
  5
5052
330
5048
100
AcDbEntity
  8
0
100
AcDbBlockBegin
  2
*D8
 70
     1
 10
0.0
 20
0.0
 30
0.0
  3
*D8
  1

  0
LINE
  5
5DB8
330
5048
100
AcDbEntity
  8
寸法線
 62
     0
370
    -2
100
AcDbLine
 10
-253.2581161034281
 20
196.5316390179589
 30
0.0
 11
-182.3109448585673
 21
196.5316390179588
 31
0.0
  0
LINE
  5
5DB9
330
5048
100
AcDbEntity
  8
寸法線
 62
     0
370
    -2
100
AcDbLine
 10
-253.2581161034281
 20
214.5316390179589
 30
0.0
 11
-182.3109448585673
 21
214.5316390179588
 31
0.0
  0
LINE
  5
5DBA
330
5048
100
AcDbEntity
  8
寸法線
 62
     0
370
    -2
100
AcDbLine
 10
-185.3109448585673
 20
199.5316390179588
 30
0.0
 11
-185.3109448585673
 21
211.5316390179589
 31
0.0
  0
INSERT
  5
5DBB
330
5048
100
AcDbEntity
  8
寸法線
 62
     0
370
    -2
100
AcDbBlockReference
  2
_Closed
 10
-185.3109448585673
 20
196.5316390179588
 30
0.0
 41
3.0
 42
3.0
 43
3.0
 50
270.0
  0
INSERT
  5
5DBC
330
5048
100
AcDbEntity
  8
寸法線
 62
     0
370
    -2
100
AcDbBlockReference
  2
_Closed
 10
-185.3109448585673
 20
214.5316390179588
 30
0.0
 41
3.0
 42
3.0
 43
3.0
 50
90.0
  0
MTEXT
  5
5DBD
330
5048
100
AcDbEntity
  8
寸法線
 62
     0
100
AcDbMText
 10
-193.8109448585674
 20
205.5316390179588
 30
0.0
 40
15.0
 41
0.0
 71
     5
 72
     1
  1
9
  7
OKANO
 11
0.0000000000000001
 21
1.0
 31
0.0
 73
     1
 44
1.0
  0
POINT
  5
5DBE
330
5048
100
AcDbEntity
  8
Defpoints
 62
     0
100
AcDbPoint
 10
-255.2581161034281
 20
196.5316390179589
 30
0.0
  0
POINT
  5
5DBF
330
5048
100
AcDbEntity
  8
Defpoints
 62
     0
100
AcDbPoint
 10
-255.2581161034281
 20
214.5316390179589
 30
0.0
  0
POINT
  5
5DC0
330
5048
100
AcDbEntity
  8
Defpoints
 62
     0
100
AcDbPoint
 10
-185.3109448585673
 20
214.5316390179588
 30
0.0
  0
ENDBLK
  5
5053
330
5048
100
AcDbEntity
  8
0
100
AcDbBlockEnd
  0
BLOCK
  5
50BD
330
50B3
100
AcDbEntity
  8
0
100
AcDbBlockBegin
  2
*D9
 70
     1
 10
0.0
 20
0.0
 30
0.0
  3
*D9
  1

  0
LINE
  5
5DA0
330
50B3
100
AcDbEntity
  8
寸法線
 62
     0
370
    -2
100
AcDbLine
 10
-397.2581161034281
 20
287.5316390179589
 30
0.0
 11
-397.2581161034281
 21
311.0155808190868
 31
0.0
  0
LINE
  5
5DA1
330
50B3
100
AcDbEntity
  8
寸法線
 62
     0
370
    -2
100
AcDbLine
 10
-225.2581161034281
 20
287.5316390179589
 30
0.0
 11
-225.2581161034281
 21
311.0155808190868
 31
0.0
  0
LINE
  5
5DA2
330
50B3
100
AcDbEntity
  8
寸法線
 62
     0
370
    -2
100
AcDbLine
 10
-394.2581161034281
 20
308.0155808190868
 30
0.0
 11
-228.2581161034281
 21
308.0155808190868
 31
0.0
  0
INSERT
  5
5DA3
330
50B3
100
AcDbEntity
  8
寸法線
 62
     0
370
    -2
100
AcDbBlockReference
  2
_Closed
 10
-397.2581161034281
 20
308.0155808190868
 30
0.0
 41
3.0
 42
3.0
 43
3.0
 50
180.0
  0
INSERT
  5
5DA4
330
50B3
100
AcDbEntity
  8
寸法線
 62
     0
370
    -2
100
AcDbBlockReference
  2
_Closed
 10
-225.2581161034281
 20
308.0155808190868
 30
0.0
 41
3.0
 42
3.0
 43
3.0
  0
MTEXT
  5
5DA5
330
50B3
100
AcDbEntity
  8
寸法線
 62
     0
100
AcDbMText
 10
-311.2581161034281
 20
316.5155808190868
 30
0.0
 40
15.0
 41
0.0
 71
     5
 72
     1
  1
86
  7
OKANO
 73
     1
 44
1.0
  0
POINT
  5
5DA6
330
50B3
100
AcDbEntity
  8
Defpoints
 62
     0
100
AcDbPoint
 10
-397.2581161034281
 20
285.5316390179589
 30
0.0
  0
POINT
  5
5DA7
330
50B3
100
AcDbEntity
  8
Defpoints
 62
     0
100
AcDbPoint
 10
-225.2581161034281
 20
285.5316390179589
 30
0.0
  0
POINT
  5
5DA8
330
50B3
100
AcDbEntity
  8
Defpoints
 62
     0
100
AcDbPoint
 10
-225.2581161034281
 20
308.0155808190868
 30
0.0
  0
ENDBLK
  5
50BE
330
50B3
100
AcDbEntity
  8
0
100
AcDbBlockEnd
  0
BLOCK
  5
50CA
330
50C0
100
AcDbEntity
  8
0
100
AcDbBlockBegin
  2
*D10
 70
     1
 10
0.0
 20
0.0
 30
0.0
  3
*D10
  1

  0
LINE
  5
5DAF
330
50C0
100
AcDbEntity
  8
寸法線
 62
     0
370
    -2
100
AcDbLine
 10
-223.2581161034281
 20
285.5316390179589
 30
0.0
 11
-149.2767572646307
 21
285.5316390179589
 31
0.0
  0
LINE
  5
5DB0
330
50C0
100
AcDbEntity
  8
寸法線
 62
     0
370
    -2
100
AcDbLine
 10
-223.2581161034281
 20
125.5316390179589
 30
0.0
 11
-149.2767572646307
 21
125.5316390179588
 31
0.0
  0
LINE
  5
5DB1
330
50C0
100
AcDbEntity
  8
寸法線
 62
     0
370
    -2
100
AcDbLine
 10
-152.2767572646307
 20
282.5316390179589
 30
0.0
 11
-152.2767572646307
 21
128.5316390179588
 31
0.0
  0
INSERT
  5
5DB2
330
50C0
100
AcDbEntity
  8
寸法線
 62
     0
370
    -2
100
AcDbBlockReference
  2
_Closed
 10
-152.2767572646307
 20
285.5316390179589
 30
0.0
 41
3.0
 42
3.0
 43
3.0
 50
90.0
  0
INSERT
  5
5DB3
330
50C0
100
AcDbEntity
  8
寸法線
 62
     0
370
    -2
100
AcDbBlockReference
  2
_Closed
 10
-152.2767572646307
 20
125.5316390179588
 30
0.0
 41
3.0
 42
3.0
 43
3.0
 50
270.0
  0
MTEXT
  5
5DB4
330
50C0
100
AcDbEntity
  8
寸法線
 62
     0
100
AcDbMText
 10
-160.7767572646307
 20
205.5316390179588
 30
0.0
 40
15.0
 41
0.0
 71
     5
 72
     1
  1
80
  7
OKANO
 11
0.0000000000000001
 21
1.0
 31
0.0
 73
     1
 44
1.0
  0
POINT
  5
5DB5
330
50C0
100
AcDbEntity
  8
Defpoints
 62
     0
100
AcDbPoint
 10
-225.2581161034281
 20
285.5316390179589
 30
0.0
  0
POINT
  5
5DB6
330
50C0
100
AcDbEntity
  8
Defpoints
 62
     0
100
AcDbPoint
 10
-225.2581161034281
 20
125.5316390179589
 30
0.0
  0
POINT
  5
5DB7
330
50C0
100
AcDbEntity
  8
Defpoints
 62
     0
100
AcDbPoint
 10
-152.2767572646307
 20
125.5316390179588
 30
0.0
  0
ENDBLK
  5
50CB
330
50C0
100
AcDbEntity
  8
0
100
AcDbBlockEnd
  0
BLOCK
  5
50D9
330
50CD
100
AcDbEntity
  8
0
100
AcDbBlockBegin
  2
*D11
 70
     1
 10
0.0
 20
0.0
 30
0.0
  3
*D11
  1

  0
LINE
  5
5DCA
330
50CD
100
AcDbEntity
  8
寸法線
 62
     0
370
    -2
100
AcDbLine
 10
-223.2581161034281
 20
76.45509231824028
 30
0.0
 11
-197.9756999190731
 21
76.45509231824028
 31
0.0
  0
LINE
  5
5DCB
330
50CD
100
AcDbEntity
  8
寸法線
 62
     0
370
    -2
100
AcDbLine
 10
-239.2271301957425
 20
82.4550923182403
 30
0.0
 11
-197.9756999190731
 21
82.45509231824028
 31
0.0
  0
LINE
  5
5DCC
330
50CD
100
AcDbEntity
  8
寸法線
 62
     0
370
    -2
100
AcDbLine
 10
-200.9756999190731
 20
73.45509231824029
 30
0.0
 11
-200.9756999190731
 21
70.45509231824029
 31
0.0
  0
LINE
  5
5DCD
330
50CD
100
AcDbEntity
  8
寸法線
 62
     0
370
    -2
100
AcDbLine
 10
-200.9756999190731
 20
85.45509231824029
 30
0.0
 11
-200.9756999190731
 21
100.0724064160604
 31
0.0
  0
LINE
  5
5DCE
330
50CD
100
AcDbEntity
  8
寸法線
 62
     0
370
    -2
100
AcDbLine
 10
-200.9756999190731
 20
76.45509231824028
 30
0.0
 11
-200.9756999190731
 21
82.45509231824028
 31
0.0
  0
INSERT
  5
5DCF
330
50CD
100
AcDbEntity
  8
寸法線
 62
     0
370
    -2
100
AcDbBlockReference
  2
_Closed
 10
-200.9756999190731
 20
76.45509231824028
 30
0.0
 41
3.0
 42
3.0
 43
3.0
 50
90.0
  0
INSERT
  5
5DD0
330
50CD
100
AcDbEntity
  8
寸法線
 62
     0
370
    -2
100
AcDbBlockReference
  2
_Closed
 10
-200.9756999190731
 20
82.45509231824028
 30
0.0
 41
3.0
 42
3.0
 43
3.0
 50
270.0
  0
MTEXT
  5
5DD1
330
50CD
100
AcDbEntity
  8
寸法線
 62
     0
100
AcDbMText
 10
-209.4756999190731
 20
94.26374936715033
 30
0.0
 40
15.0
 41
0.0
 71
     5
 72
     1
  1
3
  7
OKANO
 11
0.0000000000000001
 21
1.0
 31
0.0
 73
     1
 44
1.0
  0
POINT
  5
5DD2
330
50CD
100
AcDbEntity
  8
Defpoints
 62
     0
100
AcDbPoint
 10
-225.2581161034281
 20
76.4550923182403
 30
0.0
  0
POINT
  5
5DD3
330
50CD
100
AcDbEntity
  8
Defpoints
 62
     0
100
AcDbPoint
 10
-241.2271301957425
 20
82.4550923182403
 30
0.0
  0
POINT
  5
5DD4
330
50CD
100
AcDbEntity
  8
Defpoints
 62
     0
100
AcDbPoint
 10
-200.9756999190731
 20
82.45509231824028
 30
0.0
  0
ENDBLK
  5
50DA
330
50CD
100
AcDbEntity
  8
0
100
AcDbBlockEnd
  0
BLOCK
  5
50E7
330
50E0
100
AcDbEntity
  8
0
100
AcDbBlockBegin
  2
*D12
 70
     1
 10
0.0
 20
0.0
 30
0.0
  3
*D12
  1

  0
LINE
  5
5DA9
330
50E0
100
AcDbEntity
  8
寸法線
 62
     0
370
    -2
100
AcDbLine
 10
-172.2303275418326
 20
327.0614404146541
 30
0.0
 11
-227.6690416139397
 21
280.3513710871709
 31
0.0
  0
MTEXT
  5
5DAA
330
50E0
100
AcDbEntity
  8
寸法線
 62
     0
100
AcDbMText
 10
-191.794973295733
 20
321.6920386216098
 30
0.0
 40
15.0
 41
0.0
 71
     5
 72
     1
  1
Ｒ10
  7
OKANO
 11
0.7647423691081939
 21
0.6443361769222546
 31
0.0
 73
     1
 44
1.0
  0
LINE
  5
5DAB
330
50E0
100
AcDbEntity
  8
寸法線
 62
     0
370
    -2
100
AcDbLine
 10
-245.2581161034276
 20
265.5316390179594
 30
0.0
 11
-229.9632687212642
 21
278.4183625564041
 31
0.0
  0
INSERT
  5
5DAC
330
50E0
100
AcDbEntity
  8
寸法線
 62
     0
370
    -2
100
AcDbBlockReference
  2
_Closed
 10
-229.9632687212642
 20
278.4183625564041
 30
0.0
 41
3.0
 42
3.0
 43
3.0
 50
220.1159225254928
  0
POINT
  5
5DAD
330
50E0
100
AcDbEntity
  8
Defpoints
 62
     0
100
AcDbPoint
 10
-229.9632687212642
 20
278.4183625564041
 30
0.0
  0
POINT
  5
5DAE
330
50E0
100
AcDbEntity
  8
Defpoints
 62
     0
100
AcDbPoint
 10
-245.2581161034276
 20
265.5316390179594
 30
0.0
  0
ENDBLK
  5
50E8
330
50E0
100
AcDbEntity
  8
0
100
AcDbBlockEnd
  0
BLOCK
  5
5219
330
520F
100
AcDbEntity
  8
0
100
AcDbBlockBegin
  2
*D13
 70
     1
 10
0.0
 20
0.0
 30
0.0
  3
*D13
  1

  0
LINE
  5
5E64
330
520F
100
AcDbEntity
  8
寸法線
 62
     0
370
    -2
100
AcDbLine
 10
817.1757911804707
 20
347.97556638846
 30
0.0
 11
893.7944784985198
 21
347.97556638846
 31
0.0
  0
LINE
  5
5E65
330
520F
100
AcDbEntity
  8
寸法線
 62
     0
370
    -2
100
AcDbLine
 10
817.1757911804707
 20
600.7374997621363
 30
0.0
 11
893.7944784985198
 21
600.7374997621363
 31
0.0
  0
LINE
  5
5E66
330
520F
100
AcDbEntity
  8
寸法線
 62
     0
370
    -2
100
AcDbLine
 10
890.7944784985197
 20
350.97556638846
 30
0.0
 11
890.7944784985197
 21
597.7374997621364
 31
0.0
  0
INSERT
  5
5E67
330
520F
100
AcDbEntity
  8
寸法線
 62
     0
370
    -2
100
AcDbBlockReference
  2
_Closed
 10
890.7944784985197
 20
347.97556638846
 30
0.0
 41
3.0
 42
3.0
 43
3.0
 50
270.0
  0
INSERT
  5
5E68
330
520F
100
AcDbEntity
  8
寸法線
 62
     0
370
    -2
100
AcDbBlockReference
  2
_Closed
 10
890.7944784985197
 20
600.7374997621363
 30
0.0
 41
3.0
 42
3.0
 43
3.0
 50
90.0
  0
MTEXT
  5
5E69
330
520F
100
AcDbEntity
  8
寸法線
 62
     0
100
AcDbMText
 10
882.2930021205669
 20
474.3565330752984
 30
0.0
 40
15.0
 41
0.0
 71
     5
 72
     1
  1
125
  7
OKANO
 11
0.0000000000000001
 21
1.0
 31
0.0
 73
     1
 44
1.0
  0
POINT
  5
5E6A
330
520F
100
AcDbEntity
  8
Defpoints
 62
     0
100
AcDbPoint
 10
815.1757911804706
 20
347.97556638846
 30
0.0
  0
POINT
  5
5E6B
330
520F
100
AcDbEntity
  8
Defpoints
 62
     0
100
AcDbPoint
 10
815.1757911804706
 20
600.7374997621363
 30
0.0
  0
POINT
  5
5E6C
330
520F
100
AcDbEntity
  8
Defpoints
 62
     0
100
AcDbPoint
 10
890.7944784985197
 20
600.7374997621363
 30
0.0
  0
ENDBLK
  5
521A
330
520F
100
AcDbEntity
  8
0
100
AcDbBlockEnd
  0
BLOCK
  5
52F3
330
52E9
100
AcDbEntity
  8
0
100
AcDbBlockBegin
  2
*D14
 70
     1
 10
0.0
 20
0.0
 30
0.0
  3
*D14
  1

  0
LINE
  5
5A38
330
52E9
100
AcDbEntity
  8
寸法線
 62
     0
370
    -2
100
AcDbLine
 10
240.5121239758341
 20
206.7225219800607
 30
0.0
 11
205.110214242828
 21
206.7225219800607
 31
0.0
  0
LINE
  5
5A39
330
52E9
100
AcDbEntity
  8
寸法線
 62
     0
370
    -2
100
AcDbLine
 10
240.5121239758341
 20
224.7225219800607
 30
0.0
 11
205.110214242828
 21
224.7225219800607
 31
0.0
  0
LINE
  5
5A3A
330
52E9
100
AcDbEntity
  8
寸法線
 62
     0
370
    -2
100
AcDbLine
 10
208.110214242828
 20
209.7225219800607
 30
0.0
 11
208.110214242828
 21
221.7225219800607
 31
0.0
  0
INSERT
  5
5A3B
330
52E9
100
AcDbEntity
  8
寸法線
 62
     0
370
    -2
100
AcDbBlockReference
  2
_Closed
 10
208.110214242828
 20
206.7225219800607
 30
0.0
 41
3.0
 42
3.0
 43
3.0
 50
270.0
  0
INSERT
  5
5A3C
330
52E9
100
AcDbEntity
  8
寸法線
 62
     0
370
    -2
100
AcDbBlockReference
  2
_Closed
 10
208.110214242828
 20
224.7225219800607
 30
0.0
 41
3.0
 42
3.0
 43
3.0
 50
90.0
  0
MTEXT
  5
5A3D
330
52E9
100
AcDbEntity
  8
寸法線
 62
     0
100
AcDbMText
 10
204.610214242828
 20
215.7225219800607
 30
0.0
 40
5.0
 41
0.0
 71
     5
 72
     1
  1
9
  7
OKANO
 11
0.0000000000000001
 21
1.0
 31
0.0
 73
     1
 44
1.0
  0
POINT
  5
5A3E
330
52E9
100
AcDbEntity
  8
Defpoints
 62
     0
100
AcDbPoint
 10
242.5121239758341
 20
206.7225219800607
 30
0.0
  0
POINT
  5
5A3F
330
52E9
100
AcDbEntity
  8
Defpoints
 62
     0
100
AcDbPoint
 10
242.5121239758341
 20
224.7225219800607
 30
0.0
  0
POINT
  5
5A40
330
52E9
100
AcDbEntity
  8
Defpoints
 62
     0
100
AcDbPoint
 10
208.110214242828
 20
224.7225219800607
 30
0.0
  0
ENDBLK
  5
52F4
330
52E9
100
AcDbEntity
  8
0
100
AcDbBlockEnd
  0
BLOCK
  5
530B
330
5301
100
AcDbEntity
  8
0
100
AcDbBlockBegin
  2
*D15
 70
     1
 10
0.0
 20
0.0
 30
0.0
  3
*D15
  1

  0
LINE
  5
5DF0
330
5301
100
AcDbEntity
  8
寸法線
 62
     0
370
    -2
100
AcDbLine
 10
126.5121239758341
 20
237.7225219800607
 30
0.0
 11
126.5121239758341
 21
265.2759368745723
 31
0.0
  0
LINE
  5
5DF1
330
5301
100
AcDbEntity
  8
寸法線
 62
     0
370
    -2
100
AcDbLine
 10
242.5121239758341
 20
237.7225219800607
 30
0.0
 11
242.5121239758341
 21
265.2759368745723
 31
0.0
  0
LINE
  5
5DF2
330
5301
100
AcDbEntity
  8
寸法線
 62
     0
370
    -2
100
AcDbLine
 10
129.5121239758341
 20
262.2759368745724
 30
0.0
 11
239.5121239758341
 21
262.2759368745724
 31
0.0
  0
INSERT
  5
5DF3
330
5301
100
AcDbEntity
  8
寸法線
 62
     0
370
    -2
100
AcDbBlockReference
  2
_Closed
 10
126.5121239758341
 20
262.2759368745724
 30
0.0
 41
3.0
 42
3.0
 43
3.0
 50
180.0
  0
INSERT
  5
5DF4
330
5301
100
AcDbEntity
  8
寸法線
 62
     0
370
    -2
100
AcDbBlockReference
  2
_Closed
 10
242.5121239758341
 20
262.2759368745724
 30
0.0
 41
3.0
 42
3.0
 43
3.0
  0
MTEXT
  5
5DF5
330
5301
100
AcDbEntity
  8
寸法線
 62
     0
100
AcDbMText
 10
184.5121239758341
 20
270.7759368745723
 30
0.0
 40
15.0
 41
0.0
 71
     5
 72
     1
  1
60
  7
OKANO
 73
     1
 44
1.0
  0
POINT
  5
5DF6
330
5301
100
AcDbEntity
  8
Defpoints
 62
     0
100
AcDbPoint
 10
126.5121239758341
 20
235.7225219800607
 30
0.0
  0
POINT
  5
5DF7
330
5301
100
AcDbEntity
  8
Defpoints
 62
     0
100
AcDbPoint
 10
242.5121239758341
 20
235.7225219800607
 30
0.0
  0
POINT
  5
5DF8
330
5301
100
AcDbEntity
  8
Defpoints
 62
     0
100
AcDbPoint
 10
242.5121239758341
 20
262.2759368745724
 30
0.0
  0
ENDBLK
  5
530C
330
5301
100
AcDbEntity
  8
0
100
AcDbBlockEnd
  0
BLOCK
  5
5317
330
530D
100
AcDbEntity
  8
0
100
AcDbBlockBegin
  2
*D16
 70
     1
 10
0.0
 20
0.0
 30
0.0
  3
*D16
  1

  0
LINE
  5
5DE7
330
530D
100
AcDbEntity
  8
寸法線
 62
     0
370
    -2
100
AcDbLine
 10
100.5121239758341
 20
297.7225219800607
 30
0.0
 11
100.5121239758341
 21
321.2064637811886
 31
0.0
  0
LINE
  5
5DE8
330
530D
100
AcDbEntity
  8
寸法線
 62
     0
370
    -2
100
AcDbLine
 10
272.5121239758341
 20
297.7225219800607
 30
0.0
 11
272.5121239758341
 21
321.2064637811886
 31
0.0
  0
LINE
  5
5DE9
330
530D
100
AcDbEntity
  8
寸法線
 62
     0
370
    -2
100
AcDbLine
 10
103.5121239758341
 20
318.2064637811886
 30
0.0
 11
269.5121239758341
 21
318.2064637811886
 31
0.0
  0
INSERT
  5
5DEA
330
530D
100
AcDbEntity
  8
寸法線
 62
     0
370
    -2
100
AcDbBlockReference
  2
_Closed
 10
100.5121239758341
 20
318.2064637811886
 30
0.0
 41
3.0
 42
3.0
 43
3.0
 50
180.0
  0
INSERT
  5
5DEB
330
530D
100
AcDbEntity
  8
寸法線
 62
     0
370
    -2
100
AcDbBlockReference
  2
_Closed
 10
272.5121239758341
 20
318.2064637811886
 30
0.0
 41
3.0
 42
3.0
 43
3.0
  0
MTEXT
  5
5DEC
330
530D
100
AcDbEntity
  8
寸法線
 62
     0
100
AcDbMText
 10
186.5121239758341
 20
326.7064637811886
 30
0.0
 40
15.0
 41
0.0
 71
     5
 72
     1
  1
86
  7
OKANO
 73
     1
 44
1.0
  0
POINT
  5
5DED
330
530D
100
AcDbEntity
  8
Defpoints
 62
     0
100
AcDbPoint
 10
100.5121239758341
 20
295.7225219800607
 30
0.0
  0
POINT
  5
5DEE
330
530D
100
AcDbEntity
  8
Defpoints
 62
     0
100
AcDbPoint
 10
272.5121239758341
 20
295.7225219800607
 30
0.0
  0
POINT
  5
5DEF
330
530D
100
AcDbEntity
  8
Defpoints
 62
     0
100
AcDbPoint
 10
272.5121239758341
 20
318.2064637811886
 30
0.0
  0
ENDBLK
  5
5318
330
530D
100
AcDbEntity
  8
0
100
AcDbBlockEnd
  0
BLOCK
  5
532C
330
5325
100
AcDbEntity
  8
0
100
AcDbBlockBegin
  2
*D17
 70
     1
 10
0.0
 20
0.0
 30
0.0
  3
*D17
  1

  0
LINE
  5
5DF9
330
5325
100
AcDbEntity
  8
寸法線
 62
     0
370
    -2
100
AcDbLine
 10
325.5399125374283
 20
337.2523233767556
 30
0.0
 11
270.1011984653221
 21
290.5422540492725
 31
0.0
  0
MTEXT
  5
5DFA
330
5325
100
AcDbEntity
  8
寸法線
 62
     0
100
AcDbMText
 10
305.9752667835279
 20
331.8829215837113
 30
0.0
 40
15.0
 41
0.0
 71
     5
 72
     1
  1
Ｒ10
  7
OKANO
 11
0.7647423691081894
 21
0.64433617692226
 31
0.0
 73
     1
 44
1.0
  0
LINE
  5
5DFB
330
5325
100
AcDbEntity
  8
寸法線
 62
     0
370
    -2
100
AcDbLine
 10
252.5121239758342
 20
275.722521980061
 30
0.0
 11
267.8069713579975
 21
288.6092455185057
 31
0.0
  0
INSERT
  5
5DFC
330
5325
100
AcDbEntity
  8
寸法線
 62
     0
370
    -2
100
AcDbBlockReference
  2
_Closed
 10
267.8069713579975
 20
288.6092455185057
 30
0.0
 41
3.0
 42
3.0
 43
3.0
 50
220.1159225254932
  0
POINT
  5
5DFD
330
5325
100
AcDbEntity
  8
Defpoints
 62
     0
100
AcDbPoint
 10
267.8069713579975
 20
288.6092455185057
 30
0.0
  0
POINT
  5
5DFE
330
5325
100
AcDbEntity
  8
Defpoints
 62
     0
100
AcDbPoint
 10
252.5121239758342
 20
275.722521980061
 30
0.0
  0
ENDBLK
  5
532D
330
5325
100
AcDbEntity
  8
0
100
AcDbBlockEnd
  0
BLOCK
  5
53A3
330
5399
100
AcDbEntity
  8
0
100
AcDbBlockBegin
  2
*D18
 70
     1
 10
0.0
 20
0.0
 30
0.0
  3
*D18
  1

  0
LINE
  5
5DD5
330
5399
100
AcDbEntity
  8
寸法線
 62
     0
370
    -2
100
AcDbLine
 10
112.6770539237186
 20
212.6832222414377
 30
0.0
 11
112.6770539237186
 21
144.5305457735375
 31
0.0
  0
LINE
  5
5DD6
330
5399
100
AcDbEntity
  8
寸法線
 62
     0
370
    -2
100
AcDbLine
 10
140.9065226516686
 20
212.6832222414377
 30
0.0
 11
140.9065226516686
 21
144.5305457735375
 31
0.0
  0
LINE
  5
5DD7
330
5399
100
AcDbEntity
  8
寸法線
 62
     0
370
    -2
100
AcDbLine
 10
115.6770539237186
 20
147.5305457735375
 30
0.0
 11
137.9065226516686
 21
147.5305457735375
 31
0.0
  0
INSERT
  5
5DD8
330
5399
100
AcDbEntity
  8
寸法線
 62
     0
370
    -2
100
AcDbBlockReference
  2
_Closed
 10
112.6770539237186
 20
147.5305457735375
 30
0.0
 41
3.0
 42
3.0
 43
3.0
 50
180.0
  0
INSERT
  5
5DD9
330
5399
100
AcDbEntity
  8
寸法線
 62
     0
370
    -2
100
AcDbBlockReference
  2
_Closed
 10
140.9065226516686
 20
147.5305457735375
 30
0.0
 41
3.0
 42
3.0
 43
3.0
  0
MTEXT
  5
5DDA
330
5399
100
AcDbEntity
  8
寸法線
 62
     0
100
AcDbMText
 10
126.7917882876936
 20
156.0305457735376
 30
0.0
 40
15.0
 41
0.0
 71
     5
 72
     1
  1
14
  7
OKANO
 73
     1
 44
1.0
  0
POINT
  5
5DDB
330
5399
100
AcDbEntity
  8
Defpoints
 62
     0
100
AcDbPoint
 10
112.6770539237186
 20
214.6832222414377
 30
0.0
  0
POINT
  5
5DDC
330
5399
100
AcDbEntity
  8
Defpoints
 62
     0
100
AcDbPoint
 10
140.9065226516686
 20
214.6832222414377
 30
0.0
  0
POINT
  5
5DDD
330
5399
100
AcDbEntity
  8
Defpoints
 62
     0
100
AcDbPoint
 10
140.9065226516686
 20
147.5305457735375
 30
0.0
  0
ENDBLK
  5
53A4
330
5399
100
AcDbEntity
  8
0
100
AcDbBlockEnd
  0
BLOCK
  5
53B0
330
53A6
100
AcDbEntity
  8
0
100
AcDbBlockBegin
  2
*D19
 70
     1
 10
0.0
 20
0.0
 30
0.0
  3
*D19
  1

  0
LINE
  5
5DFF
330
53A6
100
AcDbEntity
  8
寸法線
 62
     0
370
    -2
100
AcDbLine
 10
296.8249006505357
 20
191.8515582651889
 30
0.0
 11
313.2833350194851
 21
191.8515582651889
 31
0.0
  0
LINE
  5
5E00
330
53A6
100
AcDbEntity
  8
寸法線
 62
     0
370
    -2
100
AcDbLine
 10
296.8249006505357
 20
295.9378526666842
 30
0.0
 11
313.2833350194851
 21
295.9378526666842
 31
0.0
  0
LINE
  5
5E01
330
53A6
100
AcDbEntity
  8
寸法線
 62
     0
370
    -2
100
AcDbLine
 10
310.2833350194851
 20
194.8515582651889
 30
0.0
 11
310.2833350194851
 21
292.9378526666841
 31
0.0
  0
INSERT
  5
5E02
330
53A6
100
AcDbEntity
  8
寸法線
 62
     0
370
    -2
100
AcDbBlockReference
  2
_Closed
 10
310.2833350194851
 20
191.8515582651889
 30
0.0
 41
3.0
 42
3.0
 43
3.0
 50
270.0
  0
INSERT
  5
5E03
330
53A6
100
AcDbEntity
  8
寸法線
 62
     0
370
    -2
100
AcDbBlockReference
  2
_Closed
 10
310.2833350194851
 20
295.9378526666842
 30
0.0
 41
3.0
 42
3.0
 43
3.0
 50
90.0
  0
MTEXT
  5
5E04
330
53A6
100
AcDbEntity
  8
寸法線
 62
     0
100
AcDbMText
 10
301.783335019485
 20
243.8947054659367
 30
0.0
 40
15.0
 41
0.0
 71
     5
 72
     1
  1
55
  7
OKANO
 11
0.0000000000000001
 21
1.0
 31
0.0
 73
     1
 44
1.0
  0
POINT
  5
5E05
330
53A6
100
AcDbEntity
  8
Defpoints
 62
     0
100
AcDbPoint
 10
294.8249006505357
 20
191.8515582651889
 30
0.0
  0
POINT
  5
5E06
330
53A6
100
AcDbEntity
  8
Defpoints
 62
     0
100
AcDbPoint
 10
294.8249006505357
 20
295.9378526666842
 30
0.0
  0
POINT
  5
5E07
330
53A6
100
AcDbEntity
  8
Defpoints
 62
     0
100
AcDbPoint
 10
310.2833350194851
 20
295.9378526666842
 30
0.0
  0
ENDBLK
  5
53B1
330
53A6
100
AcDbEntity
  8
0
100
AcDbBlockEnd
  0
BLOCK
  5
53C7
330
53BC
100
AcDbEntity
  8
0
100
AcDbBlockBegin
  2
*D20
 70
     1
 10
0.0
 20
0.0
 30
0.0
  3
*D20
  1

  0
LINE
  5
5E2E
330
53BC
100
AcDbEntity
  8
寸法線
 62
     0
370
    -2
100
AcDbLine
 10
373.6715954454848
 20
169.6908656384039
 30
0.0
 11
393.4910105068702
 21
169.6908656384039
 31
0.0
  0
LINE
  5
5E2F
330
53BC
100
AcDbEntity
  8
寸法線
 62
     0
370
    -2
100
AcDbLine
 10
373.6715954454848
 20
192.5229023765132
 30
0.0
 11
393.4910105068702
 21
192.5229023765132
 31
0.0
  0
LINE
  5
5E30
330
53BC
100
AcDbEntity
  8
寸法線
 62
     0
370
    -2
100
AcDbLine
 10
390.4910105068702
 20
172.6908656384039
 30
0.0
 11
390.4910105068702
 21
189.5229023765132
 31
0.0
  0
INSERT
  5
5E31
330
53BC
100
AcDbEntity
  8
寸法線
 62
     0
370
    -2
100
AcDbBlockReference
  2
_Closed
 10
390.4910105068702
 20
169.6908656384039
 30
0.0
 41
3.0
 42
3.0
 43
3.0
 50
270.0
  0
INSERT
  5
5E32
330
53BC
100
AcDbEntity
  8
寸法線
 62
     0
370
    -2
100
AcDbBlockReference
  2
_Closed
 10
390.4910105068702
 20
192.5229023765132
 30
0.0
 41
3.0
 42
3.0
 43
3.0
 50
90.0
  0
MTEXT
  5
5E33
330
53BC
100
AcDbEntity
  8
寸法線
 62
     0
100
AcDbMText
 10
381.9910105068701
 20
181.1068840074586
 30
0.0
 40
15.0
 41
0.0
 71
     5
 72
     1
  1
15
  7
OKANO
 11
0.0000000000000001
 21
1.0
 31
0.0
 73
     1
 44
1.0
  0
POINT
  5
5E34
330
53BC
100
AcDbEntity
  8
Defpoints
 62
     0
100
AcDbPoint
 10
371.6715954454848
 20
169.6908656384039
 30
0.0
  0
POINT
  5
5E35
330
53BC
100
AcDbEntity
  8
Defpoints
 62
     0
100
AcDbPoint
 10
371.6715954454848
 20
192.5229023765132
 30
0.0
  0
POINT
  5
5E36
330
53BC
100
AcDbEntity
  8
Defpoints
 62
     0
100
AcDbPoint
 10
390.4910105068702
 20
192.5229023765132
 30
0.0
  0
ENDBLK
  5
53C8
330
53BC
100
AcDbEntity
  8
0
100
AcDbBlockEnd
  0
BLOCK
  5
53D4
330
53CA
100
AcDbEntity
  8
0
100
AcDbBlockBegin
  2
*D21
 70
     1
 10
0.0
 20
0.0
 30
0.0
  3
*D21
  1

  0
LINE
  5
5E11
330
53CA
100
AcDbEntity
  8
寸法線
 62
     0
370
    -2
100
AcDbLine
 10
288.5224561142968
 20
185.7225219800607
 30
0.0
 11
288.5224561142968
 21
138.5823847601131
 31
0.0
  0
LINE
  5
5E12
330
53CA
100
AcDbEntity
  8
寸法線
 62
     0
370
    -2
100
AcDbLine
 10
359.9885188037296
 20
167.6908656384039
 30
0.0
 11
359.9885188037296
 21
138.5823847601131
 31
0.0
  0
LINE
  5
5E13
330
53CA
100
AcDbEntity
  8
寸法線
 62
     0
370
    -2
100
AcDbLine
 10
291.5224561142967
 20
141.5823847601132
 30
0.0
 11
356.9885188037297
 21
141.5823847601132
 31
0.0
  0
INSERT
  5
5E14
330
53CA
100
AcDbEntity
  8
寸法線
 62
     0
370
    -2
100
AcDbBlockReference
  2
_Closed
 10
288.5224561142968
 20
141.5823847601132
 30
0.0
 41
3.0
 42
3.0
 43
3.0
 50
180.0
  0
INSERT
  5
5E15
330
53CA
100
AcDbEntity
  8
寸法線
 62
     0
370
    -2
100
AcDbBlockReference
  2
_Closed
 10
359.9885188037296
 20
141.5823847601132
 30
0.0
 41
3.0
 42
3.0
 43
3.0
  0
MTEXT
  5
5E16
330
53CA
100
AcDbEntity
  8
寸法線
 62
     0
100
AcDbMText
 10
324.2554874590132
 20
150.0823847601131
 30
0.0
 40
15.0
 41
0.0
 71
     5
 72
     1
  1
35
  7
OKANO
 73
     1
 44
1.0
  0
POINT
  5
5E17
330
53CA
100
AcDbEntity
  8
Defpoints
 62
     0
100
AcDbPoint
 10
288.5224561142968
 20
187.7225219800607
 30
0.0
  0
POINT
  5
5E18
330
53CA
100
AcDbEntity
  8
Defpoints
 62
     0
100
AcDbPoint
 10
359.9885188037296
 20
169.6908656384039
 30
0.0
  0
POINT
  5
5E19
330
53CA
100
AcDbEntity
  8
Defpoints
 62
     0
100
AcDbPoint
 10
359.9885188037296
 20
141.5823847601132
 30
0.0
  0
ENDBLK
  5
53D5
330
53CA
100
AcDbEntity
  8
0
100
AcDbBlockEnd
  0
BLOCK
  5
53FC
330
53F2
100
AcDbEntity
  8
0
100
AcDbBlockBegin
  2
*D22
 70
     1
 10
0.0
 20
0.0
 30
0.0
  3
*D22
  1

  0
LINE
  5
5D97
330
53F2
100
AcDbEntity
  8
寸法線
 62
     0
370
    -2
100
AcDbLine
 10
-379.2581161034281
 20
285.5316390179589
 30
0.0
 11
-450.3755159048596
 21
285.5316390179589
 31
0.0
  0
LINE
  5
5D98
330
53F2
100
AcDbEntity
  8
寸法線
 62
     0
370
    -2
100
AcDbLine
 10
-378.2581161034281
 20
205.5316390179589
 30
0.0
 11
-450.3755159048596
 21
205.5316390179589
 31
0.0
  0
LINE
  5
5D99
330
53F2
100
AcDbEntity
  8
寸法線
 62
     0
370
    -2
100
AcDbLine
 10
-447.3755159048596
 20
282.5316390179589
 30
0.0
 11
-447.3755159048596
 21
208.5316390179589
 31
0.0
  0
INSERT
  5
5D9A
330
53F2
100
AcDbEntity
  8
寸法線
 62
     0
370
    -2
100
AcDbBlockReference
  2
_Closed
 10
-447.3755159048596
 20
285.5316390179589
 30
0.0
 41
3.0
 42
3.0
 43
3.0
 50
90.0
  0
INSERT
  5
5D9B
330
53F2
100
AcDbEntity
  8
寸法線
 62
     0
370
    -2
100
AcDbBlockReference
  2
_Closed
 10
-447.3755159048596
 20
205.5316390179589
 30
0.0
 41
3.0
 42
3.0
 43
3.0
 50
270.0
  0
MTEXT
  5
5D9C
330
53F2
100
AcDbEntity
  8
寸法線
 62
     0
100
AcDbMText
 10
-455.8755159048597
 20
245.5316390179588
 30
0.0
 40
15.0
 41
0.0
 71
     5
 72
     1
  1
40
  7
OKANO
 11
0.0000000000000001
 21
1.0
 31
0.0
 73
     1
 44
1.0
  0
POINT
  5
5D9D
330
53F2
100
AcDbEntity
  8
Defpoints
 62
     0
100
AcDbPoint
 10
-377.2581161034281
 20
285.5316390179589
 30
0.0
  0
POINT
  5
5D9E
330
53F2
100
AcDbEntity
  8
Defpoints
 62
     0
100
AcDbPoint
 10
-376.2581161034281
 20
205.5316390179589
 30
0.0
  0
POINT
  5
5D9F
330
53F2
100
AcDbEntity
  8
Defpoints
 62
     0
100
AcDbPoint
 10
-447.3755159048596
 20
205.5316390179589
 30
0.0
  0
ENDBLK
  5
53FD
330
53F2
100
AcDbEntity
  8
0
100
AcDbBlockEnd
  0
BLOCK
  5
5409
330
53FF
100
AcDbEntity
  8
0
100
AcDbBlockBegin
  2
*D23
 70
     1
 10
0.0
 20
0.0
 30
0.0
  3
*D23
  1

  0
LINE
  5
5DDE
330
53FF
100
AcDbEntity
  8
寸法線
 62
     0
370
    -2
100
AcDbLine
 10
118.5121239758341
 20
295.7225219800607
 30
0.0
 11
65.98361265053975
 21
295.7225219800607
 31
0.0
  0
LINE
  5
5DDF
330
53FF
100
AcDbEntity
  8
寸法線
 62
     0
370
    -2
100
AcDbLine
 10
119.5121239758341
 20
215.7225219800607
 30
0.0
 11
65.98361265053973
 21
215.7225219800607
 31
0.0
  0
LINE
  5
5DE0
330
53FF
100
AcDbEntity
  8
寸法線
 62
     0
370
    -2
100
AcDbLine
 10
68.98361265053975
 20
292.7225219800607
 30
0.0
 11
68.98361265053972
 21
218.7225219800607
 31
0.0
  0
INSERT
  5
5DE1
330
53FF
100
AcDbEntity
  8
寸法線
 62
     0
370
    -2
100
AcDbBlockReference
  2
_Closed
 10
68.98361265053975
 20
295.7225219800607
 30
0.0
 41
3.0
 42
3.0
 43
3.0
 50
90.0
  0
INSERT
  5
5DE2
330
53FF
100
AcDbEntity
  8
寸法線
 62
     0
370
    -2
100
AcDbBlockReference
  2
_Closed
 10
68.98361265053972
 20
215.7225219800607
 30
0.0
 41
3.0
 42
3.0
 43
3.0
 50
270.0
  0
MTEXT
  5
5DE3
330
53FF
100
AcDbEntity
  8
寸法線
 62
     0
100
AcDbMText
 10
60.48361265053969
 20
255.7225219800607
 30
0.0
 40
15.0
 41
0.0
 71
     5
 72
     1
  1
40
  7
OKANO
 11
0.0000000000000001
 21
1.0
 31
0.0
 73
     1
 44
1.0
  0
POINT
  5
5DE4
330
53FF
100
AcDbEntity
  8
Defpoints
 62
     0
100
AcDbPoint
 10
120.5121239758341
 20
295.7225219800607
 30
0.0
  0
POINT
  5
5DE5
330
53FF
100
AcDbEntity
  8
Defpoints
 62
     0
100
AcDbPoint
 10
121.5121239758341
 20
215.7225219800607
 30
0.0
  0
POINT
  5
5DE6
330
53FF
100
AcDbEntity
  8
Defpoints
 62
     0
100
AcDbPoint
 10
68.98361265053972
 20
215.7225219800607
 30
0.0
  0
ENDBLK
  5
540A
330
53FF
100
AcDbEntity
  8
0
100
AcDbBlockEnd
  0
BLOCK
  5
55A5
330
559B
100
AcDbEntity
  8
0
100
AcDbBlockBegin
  2
*D24
 70
     1
 10
0.0
 20
0.0
 30
0.0
  3
*D24
  1

  0
ARC
  5
55A7
330
559B
100
AcDbEntity
  8
太線
 62
     0
370
    -2
100
AcDbCircle
 10
394.8125459663803
 20
391.1713425327862
 30
0.0
 40
354.2413354690348
100
AcDbArc
 50
150.4852281057965
 51
179.6792338885528
  0
INSERT
  5
55A8
330
559B
100
AcDbEntity
  8
太線
 62
     0
370
    -2
100
AcDbBlockReference
  2
_Closed
 10
88.03055037967089
 20
568.2920102673038
 30
0.0
 41
3.0
 42
3.0
 43
3.0
 50
60.24261405289826
  0
INSERT
  5
55A9
330
559B
100
AcDbEntity
  8
太線
 62
     0
370
    -2
100
AcDbBlockReference
  2
_Closed
 10
40.57266983162024
 20
390.1545284322424
 30
0.0
 41
3.0
 42
3.0
 43
3.0
 50
269.9218479414511
  0
MTEXT
  5
55AA
330
559B
100
AcDbEntity
  8
太線
 62
     0
100
AcDbMText
 10
41.88119895966051
 20
485.1963255704148
 30
0.0
 40
20.0
 41
0.0
 71
     5
 72
     1
  1
30°
  7
OKANO
 11
0.2574324806826251
 21
0.9662962888729264
 31
0.0
 73
     1
 44
1.0
  0
POINT
  5
55AB
330
559B
100
AcDbEntity
  8
Defpoints
 62
     0
100
AcDbPoint
 10
61.818805642092
 20
512.0104614460159
 30
0.0
  0
POINT
  5
55AC
330
559B
100
AcDbEntity
  8
Defpoints
 62
     0
100
AcDbPoint
 10
56.71121709999404
 20
586.3742357671647
 30
0.0
  0
POINT
  5
55AD
330
559B
100
AcDbEntity
  8
Defpoints
 62
     0
100
AcDbPoint
 10
394.8125459663807
 20
391.1713425327862
 30
0.0
  0
POINT
  5
55AE
330
559B
100
AcDbEntity
  8
Defpoints
 62
     0
100
AcDbPoint
 10
-534.2065040132145
 20
388.5046758661194
 30
0.0
  0
POINT
  5
55AF
330
559B
100
AcDbEntity
  8
Defpoints
 62
     0
100
AcDbPoint
 10
268.5634110155216
 20
464.0613145816218
 30
0.0
  0
ENDBLK
  5
55A6
330
559B
100
AcDbEntity
  8
0
100
AcDbBlockEnd
  0
BLOCK
  5
59CE
330
59C4
100
AcDbEntity
  8
0
100
AcDbBlockBegin
  2
*D25
 70
     1
 10
0.0
 20
0.0
 30
0.0
  3
*D25
  1

  0
LINE
  5
5E5B
330
59C4
100
AcDbEntity
  8
寸法線
 62
     0
370
    -2
100
AcDbLine
 10
826.1101324991322
 20
512.4936389625945
 30
0.0
 11
858.811345443828
 21
512.4936389625945
 31
0.0
  0
LINE
  5
5E5C
330
59C4
100
AcDbEntity
  8
寸法線
 62
     0
370
    -2
100
AcDbLine
 10
826.1101324991322
 20
598.6635072848585
 30
0.0
 11
858.811345443828
 21
598.6635072848585
 31
0.0
  0
LINE
  5
5E5D
330
59C4
100
AcDbEntity
  8
寸法線
 62
     0
370
    -2
100
AcDbLine
 10
855.8113454438281
 20
515.4936389625945
 30
0.0
 11
855.8113454438281
 21
595.6635072848585
 31
0.0
  0
INSERT
  5
5E5E
330
59C4
100
AcDbEntity
  8
寸法線
 62
     0
370
    -2
100
AcDbBlockReference
  2
_Closed
 10
855.8113454438281
 20
512.4936389625945
 30
0.0
 41
3.0
 42
3.0
 43
3.0
 50
270.0
  0
INSERT
  5
5E5F
330
59C4
100
AcDbEntity
  8
寸法線
 62
     0
370
    -2
100
AcDbBlockReference
  2
_Closed
 10
855.8113454438281
 20
598.6635072848585
 30
0.0
 41
3.0
 42
3.0
 43
3.0
 50
90.0
  0
MTEXT
  5
5E60
330
59C4
100
AcDbEntity
  8
寸法線
 62
     0
100
AcDbMText
 10
847.3113454438278
 20
555.5785731237267
 30
0.0
 40
15.0
 41
0.0
 71
     5
 72
     1
  1
50
  7
OKANO
 11
0.0000000000000001
 21
1.0
 31
0.0
 73
     1
 44
1.0
  0
POINT
  5
5E61
330
59C4
100
AcDbEntity
  8
Defpoints
 62
     0
100
AcDbPoint
 10
824.1101324991323
 20
512.4936389625945
 30
0.0
  0
POINT
  5
5E62
330
59C4
100
AcDbEntity
  8
Defpoints
 62
     0
100
AcDbPoint
 10
824.1101324991323
 20
598.6635072848585
 30
0.0
  0
POINT
  5
5E63
330
59C4
100
AcDbEntity
  8
Defpoints
 62
     0
100
AcDbPoint
 10
855.8113454438281
 20
598.6635072848585
 30
0.0
  0
ENDBLK
  5
59CF
330
59C4
100
AcDbEntity
  8
0
100
AcDbBlockEnd
  0
BLOCK
  5
59ED
330
59E3
100
AcDbEntity
  8
0
100
AcDbBlockBegin
  2
*D26
 70
     1
 10
0.0
 20
0.0
 30
0.0
  3
*D26
  1

  0
LINE
  5
5A05
330
59E3
100
AcDbEntity
  8
寸法線
 62
     0
370
    -2
100
AcDbLine
 10
-412.5452508279845
 20
854.9506390012075
 30
0.0
 11
-458.0353048186031
 21
882.9630665697649
 31
0.0
  0
LINE
  5
5A06
330
59E3
100
AcDbEntity
  8
寸法線
 62
     0
370
    -2
100
AcDbLine
 10
-385.6992877465232
 20
898.5464432926063
 30
0.0
 11
-431.1893417371418
 21
926.5588708611639
 31
0.0
  0
LINE
  5
5A07
330
59E3
100
AcDbEntity
  8
寸法線
 62
     0
370
    -2
100
AcDbLine
 10
-453.907747202371
 20
883.944528807798
 30
0.0
 11
-430.2078794991089
 21
922.4313132449319
 31
0.0
  0
INSERT
  5
5A08
330
59E3
100
AcDbEntity
  8
寸法線
 62
     0
370
    -2
100
AcDbBlockReference
  2
_Closed
 10
-455.4807948914707
 20
881.3900188806654
 30
0.0
 41
3.0
 42
3.0
 43
3.0
 50
238.3755559577669
  0
INSERT
  5
5A09
330
59E3
100
AcDbEntity
  8
寸法線
 62
     0
370
    -2
100
AcDbBlockReference
  2
_Closed
 10
-428.6348318100094
 20
924.9858231720644
 30
0.0
 41
3.0
 42
3.0
 43
3.0
 50
58.37555595776692
  0
MTEXT
  5
5A0A
330
59E3
100
AcDbEntity
  8
寸法線
 62
     0
100
AcDbMText
 10
-447.1668332050049
 20
906.3340164045641
 30
0.0
 40
10.0
 41
0.0
 71
     5
 72
     1
  1
48.9
  7
OKANO
 11
0.524349229699876
 21
0.8515033090441555
 31
0.0
 73
     1
 44
1.0
  0
POINT
  5
5A0B
330
59E3
100
AcDbEntity
  8
Defpoints
 62
     0
100
AcDbPoint
 10
-410.8422442098963
 20
853.9019405418077
 30
0.0
  0
POINT
  5
5A0C
330
59E3
100
AcDbEntity
  8
Defpoints
 62
     0
100
AcDbPoint
 10
-383.996281128435
 20
897.4977448332065
 30
0.0
  0
POINT
  5
5A0D
330
59E3
100
AcDbEntity
  8
Defpoints
 62
     0
100
AcDbPoint
 10
-428.6348318100094
 20
924.9858231720644
 30
0.0
  0
ENDBLK
  5
59EE
330
59E3
100
AcDbEntity
  8
0
100
AcDbBlockEnd
  0
BLOCK
  5
59FA
330
59F0
100
AcDbEntity
  8
0
100
AcDbBlockBegin
  2
*D27
 70
     1
 10
0.0
 20
0.0
 30
0.0
  3
*D27
  1

  0
LINE
  5
5A17
330
59F0
100
AcDbEntity
  8
寸法線
 62
     0
370
    -2
100
AcDbLine
 10
-385.6992877465233
 20
898.5464432926065
 30
0.0
 11
-431.1893417371417
 21
926.5588708611639
 31
0.0
  0
LINE
  5
5A18
330
59F0
100
AcDbEntity
  8
寸法線
 62
     0
370
    -2
100
AcDbLine
 10
-365.2973388309034
 20
928.7282256408625
 30
0.0
 11
-412.1042705223222
 21
957.5515764327233
 31
0.0
  0
LINE
  5
5A19
330
59F0
100
AcDbEntity
  8
寸法線
 62
     0
370
    -2
100
AcDbLine
 10
-427.0617841209096
 20
927.5403330991968
 30
0.0
 11
-411.1228082842893
 21
953.4240188164913
 31
0.0
  0
INSERT
  5
5A1A
330
59F0
100
AcDbEntity
  8
寸法線
 62
     0
370
    -2
100
AcDbBlockReference
  2
_Closed
 10
-428.6348318100093
 20
924.9858231720644
 30
0.0
 41
3.0
 42
3.0
 43
3.0
 50
238.3755559577668
  0
INSERT
  5
5A1B
330
59F0
100
AcDbEntity
  8
寸法線
 62
     0
370
    -2
100
AcDbBlockReference
  2
_Closed
 10
-409.5497605951896
 20
955.9785287436239
 30
0.0
 41
3.0
 42
3.0
 43
3.0
 50
58.37555595776688
  0
MTEXT
  5
5A1C
330
59F0
100
AcDbEntity
  8
寸法線
 62
     0
100
AcDbMText
 10
-424.2013160568645
 20
943.6282713360434
 30
0.0
 40
10.0
 41
0.0
 71
     5
 72
     1
  1
35
  7
OKANO
 11
0.5243492296998765
 21
0.8515033090441551
 31
0.0
 73
     1
 44
1.0
  0
POINT
  5
5A1D
330
59F0
100
AcDbEntity
  8
Defpoints
 62
     0
100
AcDbPoint
 10
-383.9962811284349
 20
897.4977448332067
 30
0.0
  0
POINT
  5
5A1E
330
59F0
100
AcDbEntity
  8
Defpoints
 62
     0
100
AcDbPoint
 10
-363.5943322128151
 20
927.6795271814625
 30
0.0
  0
POINT
  5
5A1F
330
59F0
100
AcDbEntity
  8
Defpoints
 62
     0
100
AcDbPoint
 10
-409.5497605951896
 20
955.9785287436239
 30
0.0
  0
ENDBLK
  5
59FB
330
59F0
100
AcDbEntity
  8
0
100
AcDbBlockEnd
  0
BLOCK
  5
641F
330
6415
100
AcDbEntity
  8
0
100
AcDbBlockBegin
  2
*D28
 70
     1
 10
0.0
 20
0.0
 30
0.0
  3
*D28
  1

  0
LINE
  5
649A
330
6415
100
AcDbEntity
  8
太線
 62
     0
370
    -2
100
AcDbLine
 10
3417.363223463878
 20
336.0627082787978
 30
0.0
 11
3417.363223463878
 21
306.8582412213727
 31
0.0
  0
LINE
  5
649B
330
6415
100
AcDbEntity
  8
太線
 62
     0
370
    -2
100
AcDbLine
 10
3475.391887741629
 20
336.0627082787978
 30
0.0
 11
3475.391887741629
 21
306.8582412213727
 31
0.0
  0
LINE
  5
649C
330
6415
100
AcDbEntity
  8
太線
 62
     0
370
    -2
100
AcDbLine
 10
3420.363223463878
 20
309.8582412213727
 30
0.0
 11
3472.391887741629
 21
309.8582412213727
 31
0.0
  0
INSERT
  5
649D
330
6415
100
AcDbEntity
  8
太線
 62
     0
370
    -2
100
AcDbBlockReference
  2
_Closed
 10
3417.363223463878
 20
309.8582412213727
 30
0.0
 41
3.0
 42
3.0
 43
3.0
 50
180.0
  0
INSERT
  5
649E
330
6415
100
AcDbEntity
  8
太線
 62
     0
370
    -2
100
AcDbBlockReference
  2
_Closed
 10
3475.391887741629
 20
309.8582412213727
 30
0.0
 41
3.0
 42
3.0
 43
3.0
  0
MTEXT
  5
649F
330
6415
100
AcDbEntity
  8
太線
 62
     0
100
AcDbMText
 10
3446.377555602754
 20
315.8582412213727
 30
0.0
 40
10.0
 41
0.0
 71
     5
 72
     1
  1
60
  7
OKANO
 73
     1
 44
1.0
  0
POINT
  5
64A0
330
6415
100
AcDbEntity
  8
Defpoints
 62
     0
100
AcDbPoint
 10
3417.363223463878
 20
338.0627082787977
 30
0.0
  0
POINT
  5
64A1
330
6415
100
AcDbEntity
  8
Defpoints
 62
     0
100
AcDbPoint
 10
3475.391887741629
 20
338.0627082787977
 30
0.0
  0
POINT
  5
64A2
330
6415
100
AcDbEntity
  8
Defpoints
 62
     0
100
AcDbPoint
 10
3475.391887741629
 20
309.8582412213727
 30
0.0
  0
ENDBLK
  5
6420
330
6415
100
AcDbEntity
  8
0
100
AcDbBlockEnd
  0
BLOCK
  5
643A
330
6430
100
AcDbEntity
  8
0
100
AcDbBlockBegin
  2
*D29
 70
     1
 10
0.0
 20
0.0
 30
0.0
  3
*D29
  1

  0
LINE
  5
6491
330
6430
100
AcDbEntity
  8
太線
 62
     0
370
    -2
100
AcDbLine
 10
3420.366273404914
 20
335.0886277721146
 30
0.0
 11
3378.274390410282
 21
335.0886277721146
 31
0.0
  0
LINE
  5
6492
330
6430
100
AcDbEntity
  8
太線
 62
     0
370
    -2
100
AcDbLine
 10
3419.657732984982
 20
395.2550014442531
 30
0.0
 11
3378.274390410282
 21
395.2550014442531
 31
0.0
  0
LINE
  5
6493
330
6430
100
AcDbEntity
  8
太線
 62
     0
370
    -2
100
AcDbLine
 10
3381.274390410282
 20
338.0886277721147
 30
0.0
 11
3381.274390410282
 21
392.2550014442531
 31
0.0
  0
INSERT
  5
6494
330
6430
100
AcDbEntity
  8
太線
 62
     0
370
    -2
100
AcDbBlockReference
  2
_Closed
 10
3381.274390410282
 20
335.0886277721146
 30
0.0
 41
3.0
 42
3.0
 43
3.0
 50
270.0
  0
INSERT
  5
6495
330
6430
100
AcDbEntity
  8
太線
 62
     0
370
    -2
100
AcDbBlockReference
  2
_Closed
 10
3381.274390410282
 20
395.2550014442531
 30
0.0
 41
3.0
 42
3.0
 43
3.0
 50
90.0
  0
MTEXT
  5
6496
330
6430
100
AcDbEntity
  8
太線
 62
     0
100
AcDbMText
 10
3375.274390410282
 20
365.1718146081844
 30
0.0
 40
10.0
 41
0.0
 71
     5
 72
     1
  1
60
  7
OKANO
 11
0.0000000000000001
 21
1.0
 31
0.0
 73
     1
 44
1.0
  0
POINT
  5
6497
330
6430
100
AcDbEntity
  8
Defpoints
 62
     0
100
AcDbPoint
 10
3422.366273404914
 20
335.0886277721146
 30
0.0
  0
POINT
  5
6498
330
6430
100
AcDbEntity
  8
Defpoints
 62
     0
100
AcDbPoint
 10
3421.657732984982
 20
395.2550014442531
 30
0.0
  0
POINT
  5
6499
330
6430
100
AcDbEntity
  8
Defpoints
 62
     0
100
AcDbPoint
 10
3381.274390410282
 20
395.2550014442531
 30
0.0
  0
ENDBLK
  5
643B
330
6430
100
AcDbEntity
  8
0
100
AcDbBlockEnd
  0
BLOCK
  5
6447
330
643D
100
AcDbEntity
  8
0
100
AcDbBlockBegin
  2
*D30
 70
     1
 10
0.0
 20
0.0
 30
0.0
  3
*D30
  1

  0
LINE
  5
6488
330
643D
100
AcDbEntity
  8
太線
 62
     0
370
    -2
100
AcDbLine
 10
3419.657732984982
 20
395.2550014442531
 30
0.0
 11
3378.274390410282
 21
395.2550014442531
 31
0.0
  0
LINE
  5
6489
330
643D
100
AcDbEntity
  8
太線
 62
     0
370
    -2
100
AcDbLine
 10
3438.078399358608
 20
637.3362456801697
 30
0.0
 11
3378.274390410282
 21
637.3362456801697
 31
0.0
  0
LINE
  5
648A
330
643D
100
AcDbEntity
  8
太線
 62
     0
370
    -2
100
AcDbLine
 10
3381.274390410282
 20
398.2550014442531
 30
0.0
 11
3381.274390410282
 21
634.3362456801696
 31
0.0
  0
INSERT
  5
648B
330
643D
100
AcDbEntity
  8
太線
 62
     0
370
    -2
100
AcDbBlockReference
  2
_Closed
 10
3381.274390410282
 20
395.2550014442531
 30
0.0
 41
3.0
 42
3.0
 43
3.0
 50
270.0
  0
INSERT
  5
648C
330
643D
100
AcDbEntity
  8
太線
 62
     0
370
    -2
100
AcDbBlockReference
  2
_Closed
 10
3381.274390410282
 20
637.3362456801697
 30
0.0
 41
3.0
 42
3.0
 43
3.0
 50
90.0
  0
MTEXT
  5
648D
330
643D
100
AcDbEntity
  8
太線
 62
     0
100
AcDbMText
 10
3375.273406158314
 20
516.2956235622119
 30
0.0
 40
10.0
 41
0.0
 71
     5
 72
     1
  1
240
  7
OKANO
 11
0.0000000000000001
 21
1.0
 31
0.0
 73
     1
 44
1.0
  0
POINT
  5
648E
330
643D
100
AcDbEntity
  8
Defpoints
 62
     0
100
AcDbPoint
 10
3421.657732984982
 20
395.2550014442531
 30
0.0
  0
POINT
  5
648F
330
643D
100
AcDbEntity
  8
Defpoints
 62
     0
100
AcDbPoint
 10
3440.078399358608
 20
637.3362456801697
 30
0.0
  0
POINT
  5
6490
330
643D
100
AcDbEntity
  8
Defpoints
 62
     0
100
AcDbPoint
 10
3381.274390410282
 20
637.3362456801697
 30
0.0
  0
ENDBLK
  5
6448
330
643D
100
AcDbEntity
  8
0
100
AcDbBlockEnd
  0
BLOCK
  5
691D
330
6912
100
AcDbEntity
  8
0
100
AcDbBlockBegin
  2
*D31
 70
     1
 10
0.0
 20
0.0
 30
0.0
  3
*D31
  1

  0
LINE
  5
693D
330
6912
100
AcDbEntity
  8
太線
 62
     0
370
    -2
100
AcDbLine
 10
2149.162140445861
 20
2505.248830670524
 30
0.0
 11
1923.564399015692
 21
2634.795077673462
 31
0.0
  0
ARC
  5
693E
330
6912
100
AcDbEntity
  8
太線
 62
     0
370
    -2
100
AcDbCircle
 10
2320.463347757612
 20
2406.881584732564
 30
0.0
 40
454.6825709779241
100
AcDbArc
 50
150.5120637691268
 51
179.4888935419665
  0
INSERT
  5
693F
330
6912
100
AcDbEntity
  8
太線
 62
     0
370
    -2
100
AcDbBlockReference
  2
_Closed
 10
1926.165976881507
 20
2633.301159132142
 30
0.0
 41
3.0
 42
3.0
 43
3.0
 50
60.32304437262958
  0
INSERT
  5
6940
330
6912
100
AcDbEntity
  8
太線
 62
     0
370
    -2
100
AcDbBlockReference
  2
_Closed
 10
1865.782003026592
 20
2407.937569905936
 30
0.0
 41
3.0
 42
3.0
 43
3.0
 50
269.6779129384638
  0
MTEXT
  5
6941
330
6912
100
AcDbEntity
  8
太線
 62
     0
100
AcDbMText
 10
1860.988238827663
 20
2529.993455021253
 30
0.0
 40
40.0
 41
0.0
 71
     5
 72
     1
  1
30
  7
OKANO
 11
0.2588109756377943
 21
0.9659279884594983
 31
0.0
 73
     1
 44
1.0
  0
POINT
  5
6942
330
6912
100
AcDbEntity
  8
Defpoints
 62
     0
100
AcDbPoint
 10
1893.079501052996
 20
2562.056608261031
 30
0.0
  0
POINT
  5
6943
330
6912
100
AcDbEntity
  8
Defpoints
 62
     0
100
AcDbPoint
 10
2150.896525689737
 20
2504.252884976311
 30
0.0
  0
POINT
  5
6944
330
6912
100
AcDbEntity
  8
Defpoints
 62
     0
100
AcDbPoint
 10
455.3813987808362
 20
2411.213187311086
 30
0.0
  0
POINT
  5
6945
330
6912
100
AcDbEntity
  8
Defpoints
 62
     0
100
AcDbPoint
 10
2423.200760240681
 20
2406.642979859964
 30
0.0
  0
POINT
  5
6946
330
6912
100
AcDbEntity
  8
Defpoints
 62
     0
100
AcDbPoint
 10
2272.071154153565
 20
2434.670103473495
 30
0.0
  0
ENDBLK
  5
691E
330
6912
100
AcDbEntity
  8
0
100
AcDbBlockEnd
  0
ENDSEC
  0
SECTION
  2
ENTITIES
  0
CIRCLE
  5
51A8
330
1F
100
AcDbEntity
  8
太線
100
AcDbCircle
 10
636.6876921285085
 20
301.1453986766348
 30
0.0
 40
40025.0
  0
MTEXT
  5
61A0
330
1F
100
AcDbEntity
  8
太線
100
AcDbMText
 10
1394.655603494602
 20
324.3610130564884
 30
0.0
 40
5.0
 41
5.29
 71
     1
 72
     1
  1

  7
OKANO
 73
     1
 44
1.0
  0
TEXT
  5
6405
330
1F
100
AcDbEntity
  8
文字
100
AcDbText
 10
1740.550094961188
 20
846.8470495635992
 30
0.0
 40
39.0
  1
ソーラーパネル専用架台
 51
15.0
  7
OKANO
100
AcDbText
  0
TEXT
  5
6406
330
1F
100
AcDbEntity
  8
文字
100
AcDbText
 10
1729.058591437863
 20
926.9203412152656
 30
0.0
 40
48.672
  1
F-999-20120301 Auto CAD
 51
15.0
  7
OKANO
100
AcDbText
  0
TEXT
  5
6407
330
1F
100
AcDbEntity
  8
文字
100
AcDbText
 10
1804.990085377482
 20
777.331294131367
 30
0.0
 40
48.672
  1
joint kogyo T.okano
 51
15.0
  7
OKANO
100
AcDbText
  0
LINE
  5
6408
330
1F
100
AcDbEntity
  8
太線
100
AcDbLine
 10
1694.357197676297
 20
1002.759351639902
 30
0.0
 11
1694.357197676297
 21
747.2313516399014
 31
0.0
  0
LINE
  5
6409
330
1F
100
AcDbEntity
  8
太線
100
AcDbLine
 10
1450.997197676298
 20
917.5833516399018
 30
0.0
 11
2546.117197676298
 21
917.5833516399018
 31
0.0
  0
LWPOLYLINE
  5
640A
330
1F
100
AcDbEntity
  8
太線
100
AcDbPolyline
 90
        4
 70
     1
 43
0.0
 10
1450.997197676298
 20
1002.759351639902
 10
2546.117197676298
 20
1002.759351639902
 10
2546.117197676298
 20
747.2313516399017
 10
1450.997197676298
 20
747.2313516399017
  0
TEXT
  5
640B
330
1F
100
AcDbEntity
  8
文字
100
AcDbText
 10
1490.263167036122
 20
834.5011419995556
 30
0.0
 40
24.336
  1
CHECK
 51
15.0
  7
OKANO
100
AcDbText
  0
TEXT
  5
640C
330
1F
100
AcDbEntity
  8
文字
100
AcDbText
 10
1490.263167036122
 20
764.3381460725272
 30
0.0
 40
24.336
  1
ISSUED
 51
15.0
  7
OKANO
100
AcDbText
  0
TEXT
  5
640D
330
1F
100
AcDbEntity
  8
文字
100
AcDbText
 10
1492.864223385734
 20
798.1203286317061
 30
0.0
 40
24.336
  1
APPR
 51
15.0
  7
OKANO
100
AcDbText
  0
TEXT
  5
640E
330
1F
100
AcDbEntity
  8
文字
100
AcDbText
 10
1472.055828142027
 20
935.8476836925804
 30
0.0
 40
24.336
  1
FILM NAME
 51
15.0
  7
OKANO
100
AcDbText
  0
TEXT
  5
640F
330
1F
100
AcDbEntity
  8
文字
100
AcDbText
 10
1485.061076558175
 20
870.8819493828926
 30
0.0
 40
24.336
  1
DRAWN
 51
15.0
  7
OKANO
100
AcDbText
  0
LINE
  5
6664
330
1F
100
AcDbEntity
  8
太線
100
AcDbLine
 10
907.3736102551874
 20
3282.444889306705
 30
0.0
 11
880.731014478475
 21
3243.218185214396
 31
0.0
  0
LINE
  5
6665
330
1F
100
AcDbEntity
  8
太線
100
AcDbLine
 10
976.3193714375571
 20
3240.290414249832
 30
0.0
 11
952.5462919799297
 21
3200.434662535055
 31
0.0
  0
LINE
  5
6672
330
1F
100
AcDbEntity
  8
太線
100
AcDbLine
 10
1437.860881854263
 20
2918.136817545107
 30
0.0
 11
1391.234817222644
 21
2945.24013935917
 31
0.0
  0
HATCH
  5
6673
330
1F
100
AcDbEntity
  8
太線
100
AcDbHatch
 10
0.0
 20
0.0
 30
0.0
210
0.0
220
0.0
230
1.0
  2
ANGLE
 70
     0
 71
     0
 91
        3
 92
        7
 72
     0
 73
     1
 93
        5
 10
1492.674949111506
 20
2984.369812378302
 10
1487.923327324294
 20
2987.139666235691
 10
1490.458321030989
 20
2991.488390734293
 10
1530.05835606639
 20
2968.373983232174
 10
1527.534123192906
 20
2964.04942028509
 97
        0
 92
        7
 72
     0
 73
     1
 93
        5
 10
1441.141539480055
 20
3014.410084909311
 10
1443.69467914196
 20
3018.784171506705
 10
1482.68553899598
 20
2996.025337512794
 10
1480.147946217948
 20
2991.672154365965
 10
1475.396324430736
 20
2994.442008223355
 97
        0
 92
        7
 72
     0
 73
     1
 93
        4
 10
1490.416939578383
 20
2991.512544949251
 10
1487.86102459107
 20
2987.175984249556
 10
1480.579911834968
 20
2991.420349469839
 10
1483.117360220147
 20
2995.773284913988
 97
        0
 75
     0
 76
     1
 52
-30.07114413575176
 41
0.9999999999999998
 77
     0
 78
     2
 53
149.7280341126044
 43
2695.599614708461
 44
1730.710255494471
 45
3.521174226391202
 46
6.032541509794882
 79
     2
 49
5.079999999999996
 49
-1.904999999999999
 53
59.72803411260446
 43
2695.599614708461
 44
1730.710255494471
 45
6.032541509794881
 46
-3.521174226391202
 79
     2
 49
5.08
 49
-1.905
 47
0.7729242666222831
 98
        3
 10
1519.097257873099
 20
2971.62780345199
 10
1470.60197069779
 20
2999.039383932862
 10
1486.080005241782
 20
2991.7948187966
  0
LINE
  5
6674
330
1F
100
AcDbEntity
  8
太線
100
AcDbLine
 10
1475.396324430736
 20
2994.442008223355
 30
0.0
 11
1492.674949111506
 21
2984.369812378302
 31
0.0
  0
LINE
  5
6675
330
1F
100
AcDbEntity
  8
太線
100
AcDbLine
 10
1443.69467914196
 20
3018.784171506705
 30
0.0
 11
1441.141539480055
 21
3014.410084909311
 31
0.0
  0
LINE
  5
6676
330
1F
100
AcDbEntity
  8
太線
100
AcDbLine
 10
1530.05835606639
 20
2968.373983232174
 30
0.0
 11
1443.69467914196
 21
3018.784171506705
 31
0.0
  0
LINE
  5
6677
330
1F
100
AcDbEntity
  8
太線
100
AcDbLine
 10
1527.534123192906
 20
2964.049420285089
 30
0.0
 11
1530.05835606639
 21
2968.373983232174
 31
0.0
  0
LINE
  5
6678
330
1F
100
AcDbEntity
  8
太線
100
AcDbLine
 10
1475.396324430737
 20
2994.442008223355
 30
0.0
 11
1457.769981701893
 21
2964.204415032009
 31
0.0
  0
LINE
  5
6679
330
1F
100
AcDbEntity
  8
太線
100
AcDbLine
 10
1492.674949111506
 20
2984.369812378302
 30
0.0
 11
1475.048606382662
 21
2954.132219186955
 31
0.0
  0
LINE
  5
667A
330
1F
100
AcDbEntity
  8
太線
100
AcDbLine
 10
1475.048606382662
 20
2954.132219186955
 30
0.0
 11
1469.865018978431
 21
2957.153877940471
 31
0.0
  0
LINE
  5
667B
330
1F
100
AcDbEntity
  8
細線
100
AcDbLine
 10
1495.759849777781
 20
3018.454022621157
 30
0.0
 11
1491.479166543633
 21
3011.110607131831
 31
0.0
  0
LINE
  5
667C
330
1F
100
AcDbEntity
  8
太線
100
AcDbLine
 10
1496.695425187053
 20
3019.066148959069
 30
0.0
 11
1491.911132160652
 21
3010.858802235705
 31
0.0
  0
LINE
  5
667D
330
1F
100
AcDbEntity
  8
太線
100
AcDbLine
 10
1503.60687505936
 20
3015.037270621048
 30
0.0
 11
1498.822582032961
 21
3006.829923897683
 31
0.0
  0
LINE
  5
667E
330
1F
100
AcDbEntity
  8
細線
100
AcDbLine
 10
1503.535230884127
 20
3013.921534490884
 30
0.0
 11
1499.254547649979
 21
3006.578119001556
 31
0.0
  0
LINE
  5
667F
330
1F
100
AcDbEntity
  8
太線
100
AcDbLine
 10
1450.363324299806
 20
2939.584475427531
 30
0.0
 11
1435.75864032448
 21
2914.530469640416
 31
0.0
  0
ARC
  5
6680
330
1F
100
AcDbEntity
  8
太線
100
AcDbCircle
 10
1439.214365260633
 20
2912.516030471405
 30
0.0
 40
4.0
100
AcDbArc
 50
149.7608893121376
 51
329.7608893121378
  0
LINE
  5
6681
330
1F
100
AcDbEntity
  8
太線
100
AcDbLine
 10
1496.695425187053
 20
3019.066148959069
 30
0.0
 11
1503.60687505936
 21
3015.037270621048
 31
0.0
  0
LINE
  5
6682
330
1F
100
AcDbEntity
  8
細線
100
AcDbLine
 10
1503.535230884127
 20
3013.921534490884
 30
0.0
 11
1503.60687505936
 21
3015.037270621048
 31
0.0
  0
LINE
  5
6683
330
1F
100
AcDbEntity
  8
細線
100
AcDbLine
 10
1496.695425187053
 20
3019.066148959069
 30
0.0
 11
1495.759849777781
 21
3018.454022621157
 31
0.0
  0
ARC
  5
6684
330
1F
100
AcDbEntity
  8
太線
100
AcDbCircle
 10
1489.247694283304
 20
3011.253895482298
 30
0.0
 40
1.0
100
AcDbArc
 50
59.76088931213773
 51
149.7608893121376
  0
ARC
  5
6685
330
1F
100
AcDbEntity
  8
太線
100
AcDbCircle
 10
1500.478800325804
 20
3004.706968183013
 30
0.0
 40
1.0
100
AcDbArc
 50
329.7608893121378
 51
59.76088931213773
  0
ARC
  5
6686
330
1F
100
AcDbEntity
  8
太線
100
AcDbCircle
 10
1485.239549049052
 20
3006.645358767344
 30
0.0
 40
1.0
100
AcDbArc
 50
59.76088931213773
 51
149.7608893121376
  0
ARC
  5
6687
330
1F
100
AcDbEntity
  8
太線
100
AcDbCircle
 10
1498.443628053022
 20
2998.948330089504
 30
0.0
 40
1.0
100
AcDbArc
 50
329.7608893121378
 51
59.76088931213773
  0
ARC
  5
6688
330
1F
100
AcDbEntity
  8
太線
100
AcDbCircle
 10
1489.377773925528
 20
3009.987795926692
 30
0.0
 40
2.029760773594802
100
AcDbArc
 50
0.1997145485541861
 51
119.3220640757213
  0
ARC
  5
6689
330
1F
100
AcDbEntity
  8
太線
100
AcDbCircle
 10
1499.358310243501
 20
3004.274040978488
 30
0.0
 40
1.985679729703703
100
AcDbArc
 50
357.9600588988265
 51
121.561719725449
  0
ARC
  5
668A
330
1F
100
AcDbEntity
  8
太線
100
AcDbCircle
 10
1491.086173862659
 20
3001.500947577366
 30
0.0
 40
8.499999999999836
100
AcDbArc
 50
31.68840237628327
 51
87.83337624799221
  0
LINE
  5
668B
330
1F
100
AcDbEntity
  8
太線
100
AcDbLine
 10
1491.4075223684
 20
3009.994871001666
 30
0.0
 11
1488.889473407137
 21
3005.675214831475
 31
0.0
  0
LINE
  5
668C
330
1F
100
AcDbEntity
  8
太線
100
AcDbLine
 10
1498.318972240707
 20
3005.965992663644
 30
0.0
 11
1495.800923279444
 21
3001.646336493453
 31
0.0
  0
LINE
  5
668D
330
1F
100
AcDbEntity
  8
太線
100
AcDbLine
 10
1498.824682598578
 20
2999.883702220569
 30
0.0
 11
1485.865714088002
 21
3007.437849104358
 31
0.0
  0
LINE
  5
668E
330
1F
100
AcDbEntity
  8
太線
100
AcDbLine
 10
1484.375617815014
 20
3007.148968559598
 30
0.0
 11
1484.123812918888
 21
3006.717002942579
 31
0.0
  0
LINE
  5
668F
330
1F
100
AcDbEntity
  8
太線
100
AcDbLine
 10
1485.865714088002
 20
3007.437849104358
 30
0.0
 11
1485.743158841306
 21
3007.509290001384
 31
0.0
  0
LINE
  5
6690
330
1F
100
AcDbEntity
  8
太線
100
AcDbLine
 10
1488.383763049266
 20
3011.75750527455
 30
0.0
 11
1485.865714088002
 21
3007.437849104358
 31
0.0
  0
LINE
  5
6691
330
1F
100
AcDbEntity
  8
太線
100
AcDbLine
 10
1500.982410118056
 20
3005.570899417052
 30
0.0
 11
1489.751304075556
 21
3012.117826716336
 31
0.0
  0
LINE
  5
6692
330
1F
100
AcDbEntity
  8
太線
100
AcDbLine
 10
1498.824682598578
 20
2999.883702220569
 30
0.0
 11
1501.342731559842
 21
3004.20335839076
 31
0.0
  0
LINE
  5
6693
330
1F
100
AcDbEntity
  8
太線
100
AcDbLine
 10
1498.947237845275
 20
2999.812261323542
 30
0.0
 11
1498.824682598578
 21
2999.883702220569
 31
0.0
  0
LINE
  5
6694
330
1F
100
AcDbEntity
  8
太線
100
AcDbLine
 10
1499.055754390935
 20
2998.012754680232
 30
0.0
 11
1499.307559287061
 21
2998.444720297251
 31
0.0
  0
LINE
  5
6695
330
1F
100
AcDbEntity
  8
太線
100
AcDbLine
 10
1499.055754390935
 20
2998.012754680232
 30
0.0
 11
1484.123812918888
 21
3006.717002942579
 31
0.0
  0
LINE
  5
6696
330
1F
100
AcDbEntity
  8
細線
100
AcDbLine
 10
1475.111848295421
 20
2983.032842025581
 30
0.0
 11
1475.040204120188
 21
2981.917105895416
 31
0.0
  0
LINE
  5
6697
330
1F
100
AcDbEntity
  8
細線
100
AcDbLine
 10
1487.702093101738
 20
3004.631122876542
 30
0.0
 11
1475.111848295421
 21
2983.032842025581
 31
0.0
  0
LINE
  5
6698
330
1F
100
AcDbEntity
  8
細線
100
AcDbLine
 10
1482.887229401767
 20
2978.500353895306
 30
0.0
 11
1495.477474208084
 21
3000.098634746269
 31
0.0
  0
LINE
  5
6699
330
1F
100
AcDbEntity
  8
細線
100
AcDbLine
 10
1481.951653992495
 20
2977.888227557395
 30
0.0
 11
1482.887229401767
 21
2978.500353895306
 31
0.0
  0
LINE
  5
669A
330
1F
100
AcDbEntity
  8
細線
100
AcDbLine
 10
1475.040204120188
 20
2981.917105895416
 30
0.0
 11
1481.951653992495
 21
2977.888227557395
 31
0.0
  0
LINE
  5
669B
330
1F
100
AcDbEntity
  8
太線
100
AcDbLine
 10
1450.363324299806
 20
2939.584475427531
 30
0.0
 11
1488.134058718757
 21
3004.379317980415
 31
0.0
  0
LINE
  5
669C
330
1F
100
AcDbEntity
  8
太線
100
AcDbLine
 10
1462.953569106123
 20
2961.182756278492
 30
0.0
 11
1394.868408600529
 21
3000.871509487971
 31
0.0
  0
LINE
  5
669D
330
1F
100
AcDbEntity
  8
太線
100
AcDbLine
 10
1495.477474208084
 20
3000.098634746269
 30
0.0
 11
1442.670090196787
 21
2910.501591302395
 31
0.0
  0
LINE
  5
669E
330
1F
100
AcDbEntity
  8
太線
100
AcDbLine
 10
1444.701143427991
 20
2913.947631434851
 30
0.0
 11
1444.701143427991
 21
2913.947631434851
 31
0.0
  0
LINE
  5
669F
330
1F
100
AcDbEntity
  8
太線
100
AcDbLine
 10
1434.041649564122
 20
3018.674294252439
 30
0.0
 11
1510.892816895464
 21
2973.996909550812
 31
0.0
  0
LINE
  5
66A0
330
1F
100
AcDbEntity
  8
太線
100
AcDbLine
 10
1470.18158865214
 20
2957.179702109454
 30
0.0
 11
1493.337827525228
 21
2943.717835122903
 31
0.0
  0
LINE
  5
66A1
330
1F
100
AcDbEntity
  8
太線
100
AcDbLine
 10
1471.214206431232
 20
2898.748822939072
 30
0.0
 11
1444.794648769135
 21
2914.106279742652
 31
0.0
  0
LINE
  5
66A2
330
1F
100
AcDbEntity
  8
太線
100
AcDbLine
 10
1094.556723485171
 20
3118.182136669105
 30
0.0
 11
1094.556723485171
 21
3118.182136669105
 31
0.0
  0
LINE
  5
66A3
330
1F
100
AcDbEntity
  8
太線
100
AcDbLine
 10
1145.333054265265
 20
3204.333139980521
 30
0.0
 11
1092.525670253968
 21
3114.736096536647
 31
0.0
  0
LINE
  5
66A4
330
1F
100
AcDbEntity
  8
太線
100
AcDbLine
 10
1112.809149163304
 20
3165.417261512746
 30
0.0
 11
1044.723988657709
 21
3205.106014722224
 31
0.0
  0
LINE
  5
66A5
330
1F
100
AcDbEntity
  8
太線
100
AcDbLine
 10
1119.720599035612
 20
3161.388383174724
 30
0.0
 11
1303.062564802141
 21
3054.51319953393
 31
0.0
  0
LINE
  5
66A6
330
1F
100
AcDbEntity
  8
太線
100
AcDbLine
 10
741.437090363692
 20
3381.900469911476
 30
0.0
 11
944.6703508527935
 21
3263.430091643854
 31
0.0
  0
LINE
  5
66A7
330
1F
100
AcDbEntity
  8
太線
100
AcDbLine
 10
709.15517694445
 20
3342.408440901946
 30
0.0
 11
631.1757447040904
 21
3388.299929918596
 31
0.0
  0
LINE
  5
66A8
330
1F
100
AcDbEntity
  8
太線
100
AcDbLine
 10
1087.628659550671
 20
3122.220699810823
 30
0.0
 11
941.7893111896033
 21
3207.234553965692
 31
0.0
  0
LINE
  5
66A9
330
1F
100
AcDbEntity
  8
太線
100
AcDbLine
 10
941.7893111896033
 20
3207.234553965692
 30
0.0
 11
927.5965066284079
 21
3215.507938553415
 31
0.0
  0
LINE
  5
66AA
330
1F
100
AcDbEntity
  8
太線
100
AcDbLine
 10
958.8631554139899
 20
3255.15670705613
 30
0.0
 11
944.6703508527935
 21
3263.430091643854
 31
0.0
  0
LINE
  5
66AB
330
1F
100
AcDbEntity
  8
太線
100
AcDbLine
 10
970.81484637106
 20
3288.702214219437
 30
0.0
 11
956.622041809865
 21
3296.97559880716
 31
0.0
  0
LINE
  5
66AC
330
1F
100
AcDbEntity
  8
太線
100
AcDbLine
 10
1300.18152513895
 20
2998.317661855769
 30
0.0
 11
1285.988720577755
 21
3006.591046443492
 31
0.0
  0
LINE
  5
66AD
330
1F
100
AcDbEntity
  8
太線
100
AcDbLine
 10
1317.255369363337
 20
3046.239814946207
 30
0.0
 11
1303.062564802141
 21
3054.51319953393
 31
0.0
  0
LINE
  5
66AE
330
1F
100
AcDbEntity
  8
太線
100
AcDbLine
 10
1329.207060320408
 20
3079.785322109513
 30
0.0
 11
1315.014255759212
 21
3088.058706697236
 31
0.0
  0
LINE
  5
66AF
330
1F
100
AcDbEntity
  8
太線
100
AcDbLine
 10
927.5965066284079
 20
3215.507938553415
 30
0.0
 11
716.2566007510581
 21
3338.703908209553
 31
0.0
  0
LINE
  5
66B0
330
1F
100
AcDbEntity
  8
太線
100
AcDbLine
 10
958.8631554139899
 20
3255.15670705613
 30
0.0
 11
1112.809149163304
 21
3165.417261512746
 31
0.0
  0
LINE
  5
66B1
330
1F
100
AcDbEntity
  8
太線
100
AcDbLine
 10
970.81484637106
 20
3288.702214219437
 30
0.0
 11
1125.251904487917
 21
3198.676513457607
 31
0.0
  0
LINE
  5
66B2
330
1F
100
AcDbEntity
  8
太線
100
AcDbLine
 10
1285.988720577755
 20
3006.591046443492
 30
0.0
 11
1094.540109422978
 21
3118.191821472802
 31
0.0
  0
LINE
  5
66B3
330
1F
100
AcDbEntity
  8
太線
100
AcDbLine
 10
1317.255369363337
 20
3046.239814946207
 30
0.0
 11
1416.415306835278
 21
2988.436701061092
 31
0.0
  0
LINE
  5
66B4
330
1F
100
AcDbEntity
  8
太線
100
AcDbLine
 10
1329.207060320408
 20
3079.785322109513
 30
0.0
 11
1434.041649564122
 21
3018.674294252439
 31
0.0
  0
LINE
  5
66B5
330
1F
100
AcDbEntity
  8
太線
100
AcDbLine
 10
1100.218904356987
 20
3143.818980661784
 30
0.0
 11
1137.989638775938
 21
3208.613823214669
 31
0.0
  0
LINE
  5
66B6
330
1F
100
AcDbEntity
  8
細線
100
AcDbLine
 10
1124.895784177368
 20
3186.151611129669
 30
0.0
 11
1131.807234049676
 21
3182.122732791647
 31
0.0
  0
LINE
  5
66B7
330
1F
100
AcDbEntity
  8
細線
100
AcDbLine
 10
1131.807234049676
 20
3182.122732791647
 30
0.0
 11
1132.742809458948
 21
3182.73485912956
 31
0.0
  0
LINE
  5
66B8
330
1F
100
AcDbEntity
  8
細線
100
AcDbLine
 10
1132.742809458948
 20
3182.73485912956
 30
0.0
 11
1145.333054265265
 21
3204.333139980521
 31
0.0
  0
LINE
  5
66B9
330
1F
100
AcDbEntity
  8
細線
100
AcDbLine
 10
1137.557673158918
 20
3208.865628110796
 30
0.0
 11
1124.967428352602
 21
3187.267347259834
 31
0.0
  0
LINE
  5
66BA
330
1F
100
AcDbEntity
  8
細線
100
AcDbLine
 10
1124.967428352602
 20
3187.267347259834
 30
0.0
 11
1124.895784177368
 21
3186.151611129669
 31
0.0
  0
LINE
  5
66BB
330
1F
100
AcDbEntity
  8
太線
100
AcDbLine
 10
1148.911334448115
 20
3202.247259914485
 30
0.0
 11
1133.979392976068
 21
3210.951508176833
 31
0.0
  0
LINE
  5
66BC
330
1F
100
AcDbEntity
  8
太線
100
AcDbLine
 10
1148.911334448115
 20
3202.247259914485
 30
0.0
 11
1149.163139344241
 21
3202.679225531503
 31
0.0
  0
LINE
  5
66BD
330
1F
100
AcDbEntity
  8
太線
100
AcDbLine
 10
1148.802817902455
 20
3204.046766557794
 30
0.0
 11
1148.680262655759
 21
3204.118207454822
 31
0.0
  0
LINE
  5
66BE
330
1F
100
AcDbEntity
  8
太線
100
AcDbLine
 10
1148.680262655759
 20
3204.118207454822
 30
0.0
 11
1151.198311617022
 21
3208.437863625013
 31
0.0
  0
LINE
  5
66BF
330
1F
100
AcDbEntity
  8
太線
100
AcDbLine
 10
1150.837990175236
 20
3209.805404651305
 30
0.0
 11
1139.606884132737
 21
3216.35233195059
 31
0.0
  0
LINE
  5
66C0
330
1F
100
AcDbEntity
  8
太線
100
AcDbLine
 10
1138.239343106446
 20
3215.992010508803
 30
0.0
 11
1135.721294145182
 21
3211.67235433861
 31
0.0
  0
LINE
  5
66C1
330
1F
100
AcDbEntity
  8
太線
100
AcDbLine
 10
1135.721294145182
 20
3211.67235433861
 30
0.0
 11
1135.598738898486
 21
3211.743795235637
 31
0.0
  0
LINE
  5
66C2
330
1F
100
AcDbEntity
  8
太線
100
AcDbLine
 10
1134.231197872195
 20
3211.383473793851
 30
0.0
 11
1133.979392976068
 21
3210.951508176833
 31
0.0
  0
LINE
  5
66C3
330
1F
100
AcDbEntity
  8
太線
100
AcDbLine
 10
1148.680262655759
 20
3204.118207454822
 30
0.0
 11
1135.721294145182
 21
3211.67235433861
 31
0.0
  0
LINE
  5
66C4
330
1F
100
AcDbEntity
  8
太線
100
AcDbLine
 10
1148.174552297888
 20
3210.200497897898
 30
0.0
 11
1145.656503336625
 21
3205.880841727705
 31
0.0
  0
LINE
  5
66C5
330
1F
100
AcDbEntity
  8
太線
100
AcDbLine
 10
1141.26310242558
 20
3214.229376235918
 30
0.0
 11
1138.745053464317
 21
3209.909720065727
 31
0.0
  0
ARC
  5
66C6
330
1F
100
AcDbEntity
  8
太線
100
AcDbCircle
 10
1140.941753919839
 20
3205.735452811619
 30
0.0
 40
8.499999999999836
100
AcDbArc
 50
31.68840237628327
 51
87.83337624799221
  0
ARC
  5
66C7
330
1F
100
AcDbEntity
  8
太線
100
AcDbCircle
 10
1149.213890300682
 20
3208.508546212741
 30
0.0
 40
1.985679729703703
100
AcDbArc
 50
357.9600588988265
 51
121.561719725449
  0
ARC
  5
66C8
330
1F
100
AcDbEntity
  8
太線
100
AcDbCircle
 10
1139.233353982709
 20
3214.222301160945
 30
0.0
 40
2.029760773594802
100
AcDbArc
 50
0.1997145485541861
 51
119.3220640757213
  0
ARC
  5
66C9
330
1F
100
AcDbEntity
  8
太線
100
AcDbCircle
 10
1148.299208110203
 20
3203.182835323756
 30
0.0
 40
1.0
100
AcDbArc
 50
329.7608893121378
 51
59.76088931213773
  0
ARC
  5
66CA
330
1F
100
AcDbEntity
  8
太線
100
AcDbCircle
 10
1135.095129106233
 20
3210.879864001598
 30
0.0
 40
1.0
100
AcDbArc
 50
59.76088931213773
 51
149.7608893121376
  0
ARC
  5
66CB
330
1F
100
AcDbEntity
  8
太線
100
AcDbCircle
 10
1150.334380382984
 20
3208.941473417265
 30
0.0
 40
1.0
100
AcDbArc
 50
329.7608893121378
 51
59.76088931213773
  0
ARC
  5
66CC
330
1F
100
AcDbEntity
  8
太線
100
AcDbCircle
 10
1139.103274340484
 20
3215.48840071655
 30
0.0
 40
1.0
100
AcDbArc
 50
59.76088931213773
 51
149.7608893121376
  0
LINE
  5
66CD
330
1F
100
AcDbEntity
  8
細線
100
AcDbLine
 10
1146.551005244233
 20
3223.300654193322
 30
0.0
 11
1145.615429834961
 21
3222.68852785541
 31
0.0
  0
LINE
  5
66CE
330
1F
100
AcDbEntity
  8
細線
100
AcDbLine
 10
1153.390810941307
 20
3218.156039725137
 30
0.0
 11
1153.462455116541
 21
3219.271775855301
 31
0.0
  0
LINE
  5
66CF
330
1F
100
AcDbEntity
  8
太線
100
AcDbLine
 10
1146.551005244233
 20
3223.300654193322
 30
0.0
 11
1153.462455116541
 21
3219.271775855301
 31
0.0
  0
ARC
  5
66D0
330
1F
100
AcDbEntity
  8
太線
100
AcDbCircle
 10
1089.069945317814
 20
3116.750535705658
 30
0.0
 40
4.0
100
AcDbArc
 50
149.7608893121376
 51
329.7608893121378
  0
LINE
  5
66D1
330
1F
100
AcDbEntity
  8
太線
100
AcDbLine
 10
1100.218904356987
 20
3143.818980661784
 30
0.0
 11
1085.61422038166
 21
3118.764974874669
 31
0.0
  0
LINE
  5
66D2
330
1F
100
AcDbEntity
  8
細線
100
AcDbLine
 10
1153.390810941307
 20
3218.156039725137
 30
0.0
 11
1149.110127707159
 21
3210.812624235809
 31
0.0
  0
LINE
  5
66D3
330
1F
100
AcDbEntity
  8
太線
100
AcDbLine
 10
1153.462455116541
 20
3219.271775855301
 30
0.0
 11
1148.678162090141
 21
3211.064429131936
 31
0.0
  0
LINE
  5
66D4
330
1F
100
AcDbEntity
  8
太線
100
AcDbLine
 10
1146.551005244233
 20
3223.300654193322
 30
0.0
 11
1141.766712217832
 21
3215.093307469958
 31
0.0
  0
LINE
  5
66D5
330
1F
100
AcDbEntity
  8
細線
100
AcDbLine
 10
1145.615429834961
 20
3222.68852785541
 30
0.0
 11
1141.334746600814
 21
3215.345112366083
 31
0.0
  0
LINE
  5
66D6
330
1F
100
AcDbEntity
  8
太線
100
AcDbLine
 10
1142.530529168686
 20
3188.604317612554
 30
0.0
 11
1315.014255759212
 21
3088.058706697236
 31
0.0
  0
LINE
  5
66D7
330
1F
100
AcDbEntity
  8
太線
100
AcDbLine
 10
1124.904186439843
 20
3158.366724421208
 30
0.0
 11
1119.720599035612
 21
3161.388383174724
 31
0.0
  0
LINE
  5
66D8
330
1F
100
AcDbEntity
  8
太線
100
AcDbLine
 10
1142.530529168686
 20
3188.604317612554
 30
0.0
 11
1124.904186439843
 21
3158.366724421208
 31
0.0
  0
LINE
  5
66D9
330
1F
100
AcDbEntity
  8
太線
100
AcDbLine
 10
1125.251904487917
 20
3198.676513457608
 30
0.0
 11
1107.625561759074
 21
3168.438920266261
 31
0.0
  0
LINE
  5
66DA
330
1F
100
AcDbEntity
  8
太線
100
AcDbLine
 10
721.9353956850668
 20
3364.331067398535
 30
0.0
 11
759.7061301040167
 21
3429.125909951421
 31
0.0
  0
LINE
  5
66DB
330
1F
100
AcDbEntity
  8
太線
100
AcDbLine
 10
766.6175799763254
 20
3425.097031613399
 30
0.0
 11
728.8468455573745
 21
3360.302189060515
 31
0.0
  0
LINE
  5
66DC
330
1F
100
AcDbEntity
  8
細線
100
AcDbLine
 10
746.6122755054479
 20
3406.66369786642
 30
0.0
 11
753.5237253777559
 21
3402.634819528399
 31
0.0
  0
LINE
  5
66DD
330
1F
100
AcDbEntity
  8
細線
100
AcDbLine
 10
753.5237253777559
 20
3402.634819528399
 30
0.0
 11
754.4593007870278
 21
3403.246945866312
 31
0.0
  0
LINE
  5
66DE
330
1F
100
AcDbEntity
  8
細線
100
AcDbLine
 10
754.4593007870278
 20
3403.246945866312
 30
0.0
 11
767.0495455933444
 21
3424.845226717273
 31
0.0
  0
LINE
  5
66DF
330
1F
100
AcDbEntity
  8
細線
100
AcDbLine
 10
759.2741644869979
 20
3429.377714847546
 30
0.0
 11
746.6839196806813
 21
3407.779433996585
 31
0.0
  0
LINE
  5
66E0
330
1F
100
AcDbEntity
  8
細線
100
AcDbLine
 10
746.6839196806813
 20
3407.779433996585
 30
0.0
 11
746.6122755054479
 21
3406.66369786642
 31
0.0
  0
LINE
  5
66E1
330
1F
100
AcDbEntity
  8
太線
100
AcDbLine
 10
770.6278257761946
 20
3422.759346651236
 30
0.0
 11
755.695884304148
 21
3431.463594913584
 31
0.0
  0
LINE
  5
66E2
330
1F
100
AcDbEntity
  8
太線
100
AcDbLine
 10
770.6278257761946
 20
3422.759346651236
 30
0.0
 11
770.8796306723211
 21
3423.191312268255
 31
0.0
  0
LINE
  5
66E3
330
1F
100
AcDbEntity
  8
太線
100
AcDbLine
 10
770.5193092305351
 20
3424.558853294546
 30
0.0
 11
770.3967539838386
 21
3424.630294191573
 31
0.0
  0
LINE
  5
66E4
330
1F
100
AcDbEntity
  8
太線
100
AcDbLine
 10
770.3967539838386
 20
3424.630294191573
 30
0.0
 11
772.9148029451017
 21
3428.949950361765
 31
0.0
  0
LINE
  5
66E5
330
1F
100
AcDbEntity
  8
太線
100
AcDbLine
 10
772.5544815033168
 20
3430.317491388056
 30
0.0
 11
761.323375460816
 21
3436.86441868734
 31
0.0
  0
LINE
  5
66E6
330
1F
100
AcDbEntity
  8
太線
100
AcDbLine
 10
759.9558344345246
 20
3436.504097245556
 30
0.0
 11
757.4377854732619
 21
3432.184441075362
 31
0.0
  0
LINE
  5
66E7
330
1F
100
AcDbEntity
  8
太線
100
AcDbLine
 10
757.4377854732619
 20
3432.184441075362
 30
0.0
 11
757.3152302265659
 21
3432.255881972388
 31
0.0
  0
LINE
  5
66E8
330
1F
100
AcDbEntity
  8
太線
100
AcDbLine
 10
755.9476892002741
 20
3431.895560530603
 30
0.0
 11
755.695884304148
 21
3431.463594913584
 31
0.0
  0
LINE
  5
66E9
330
1F
100
AcDbEntity
  8
太線
100
AcDbLine
 10
770.3967539838386
 20
3424.630294191573
 30
0.0
 11
757.4377854732619
 21
3432.184441075362
 31
0.0
  0
LINE
  5
66EA
330
1F
100
AcDbEntity
  8
太線
100
AcDbLine
 10
769.8910436259677
 20
3430.712584634648
 30
0.0
 11
767.3729946647044
 21
3426.392928464457
 31
0.0
  0
LINE
  5
66EB
330
1F
100
AcDbEntity
  8
太線
100
AcDbLine
 10
762.97959375366
 20
3434.74146297267
 30
0.0
 11
760.4615447923961
 21
3430.421806802478
 31
0.0
  0
ARC
  5
66EC
330
1F
100
AcDbEntity
  8
太線
100
AcDbCircle
 10
762.6582452479183
 20
3426.247539548372
 30
0.0
 40
8.499999999999836
100
AcDbArc
 50
31.68840237628327
 51
87.83337624799221
  0
ARC
  5
66ED
330
1F
100
AcDbEntity
  8
太線
100
AcDbCircle
 10
770.9303816287615
 20
3429.020632949493
 30
0.0
 40
1.985679729703703
100
AcDbArc
 50
357.9600588988265
 51
121.561719725449
  0
ARC
  5
66EE
330
1F
100
AcDbEntity
  8
太線
100
AcDbCircle
 10
760.9498453107885
 20
3434.734387897698
 30
0.0
 40
2.029760773594802
100
AcDbArc
 50
0.1997145485541861
 51
119.3220640757213
  0
ARC
  5
66EF
330
1F
100
AcDbEntity
  8
太線
100
AcDbCircle
 10
770.015699438283
 20
3423.694922060509
 30
0.0
 40
1.0
100
AcDbArc
 50
329.7608893121378
 51
59.76088931213773
  0
ARC
  5
66F0
330
1F
100
AcDbEntity
  8
太線
100
AcDbCircle
 10
756.8116204343132
 20
3431.39195073835
 30
0.0
 40
1.0
100
AcDbArc
 50
59.76088931213773
 51
149.7608893121376
  0
ARC
  5
66F1
330
1F
100
AcDbEntity
  8
太線
100
AcDbCircle
 10
772.0508717110638
 20
3429.453560154017
 30
0.0
 40
1.0
100
AcDbArc
 50
329.7608893121378
 51
59.76088931213773
  0
ARC
  5
66F2
330
1F
100
AcDbEntity
  8
太線
100
AcDbCircle
 10
760.8197656685643
 20
3436.000487453303
 30
0.0
 40
1.0
100
AcDbArc
 50
59.76088931213773
 51
149.7608893121376
  0
LINE
  5
66F3
330
1F
100
AcDbEntity
  8
細線
100
AcDbLine
 10
768.2674965723124
 20
3443.812740930074
 30
0.0
 11
767.331921163041
 21
3443.200614592162
 31
0.0
  0
LINE
  5
66F4
330
1F
100
AcDbEntity
  8
細線
100
AcDbLine
 10
775.1073022693872
 20
3438.668126461888
 30
0.0
 11
775.178946444621
 21
3439.783862592052
 31
0.0
  0
LINE
  5
66F5
330
1F
100
AcDbEntity
  8
太線
100
AcDbLine
 10
768.2674965723124
 20
3443.812740930074
 30
0.0
 11
775.178946444621
 21
3439.783862592052
 31
0.0
  0
ARC
  5
66F6
330
1F
100
AcDbEntity
  8
太線
100
AcDbCircle
 10
710.7864366458934
 20
3337.262622442409
 30
0.0
 40
4.0
100
AcDbArc
 50
149.7608893121376
 51
329.7608893121378
  0
LINE
  5
66F7
330
1F
100
AcDbEntity
  8
太線
100
AcDbLine
 10
728.8468455573745
 20
3360.302189060515
 30
0.0
 11
714.2421615820478
 21
3335.248183273398
 31
0.0
  0
LINE
  5
66F8
330
1F
100
AcDbEntity
  8
太線
100
AcDbLine
 10
721.9353956850668
 20
3364.331067398535
 30
0.0
 11
707.3307117097392
 21
3339.27706161142
 31
0.0
  0
LINE
  5
66F9
330
1F
100
AcDbEntity
  8
細線
100
AcDbLine
 10
775.1073022693872
 20
3438.668126461888
 30
0.0
 11
770.8266190352388
 21
3431.324710972561
 31
0.0
  0
LINE
  5
66FA
330
1F
100
AcDbEntity
  8
太線
100
AcDbLine
 10
775.178946444621
 20
3439.783862592052
 30
0.0
 11
770.3946534182205
 21
3431.576515868687
 31
0.0
  0
LINE
  5
66FB
330
1F
100
AcDbEntity
  8
太線
100
AcDbLine
 10
768.2674965723124
 20
3443.812740930074
 30
0.0
 11
763.4832035459126
 21
3435.605394206708
 31
0.0
  0
LINE
  5
66FC
330
1F
100
AcDbEntity
  8
細線
100
AcDbLine
 10
767.331921163041
 20
3443.200614592162
 30
0.0
 11
763.0512379288934
 21
3435.857199102835
 31
0.0
  0
LINE
  5
66FD
330
1F
100
AcDbEntity
  8
太線
100
AcDbLine
 10
716.1660514852576
 20
3400.104167173425
 30
0.0
 11
714.6552221084998
 21
3397.512373471308
 31
0.0
  0
LINE
  5
66FE
330
1F
100
AcDbEntity
  8
太線
100
AcDbLine
 10
745.2405333479195
 20
3420.195819778865
 30
0.0
 11
727.6141906190762
 21
3389.958226587519
 31
0.0
  0
LINE
  5
66FF
330
1F
100
AcDbEntity
  8
太線
100
AcDbLine
 10
760.7912955606114
 20
3411.130843518316
 30
0.0
 11
956.622041809865
 21
3296.97559880716
 31
0.0
  0
LINE
  5
6700
330
1F
100
AcDbEntity
  8
太線
100
AcDbLine
 10
743.1649528317682
 20
3380.893250326971
 30
0.0
 11
760.7912955606114
 21
3411.130843518316
 31
0.0
  0
LINE
  5
6702
330
1F
100
AcDbEntity
  8
太線
100
AcDbLine
 10
656.3562343167241
 20
3431.49649162052
 30
0.0
 11
734.5256404913834
 21
3385.929348249498
 31
0.0
  0
LINE
  5
6703
330
1F
100
AcDbEntity
  8
太線
100
AcDbLine
 10
1391.234817222644
 20
2945.24013935917
 30
0.0
 11
1300.18152513895
 21
2998.317661855769
 31
0.0
  0
LINE
  5
6704
330
1F
100
AcDbEntity
  8
太線
100
AcDbLine
 10
716.1660514852576
 20
3400.104167173425
 30
0.0
 11
717.8449389092693
 21
3402.553061800442
 31
0.0
  0
LINE
  5
6705
330
1F
100
AcDbEntity
  8
太線
100
AcDbLine
 10
717.8449389092693
 20
3402.553061800442
 30
0.0
 11
725.4161408558893
 21
3398.133776642776
 31
0.0
  0
LINE
  5
6706
330
1F
100
AcDbEntity
  8
太線
100
AcDbLine
 10
725.4161408558893
 20
3398.133776642776
 30
0.0
 11
742.7278581890464
 21
3427.792534404712
 31
0.0
  0
LINE
  5
6707
330
1F
100
AcDbEntity
  8
太線
100
AcDbLine
 10
742.7278581890464
 20
3427.792534404712
 30
0.0
 11
798.3140933778729
 21
3395.347035543044
 31
0.0
  0
LINE
  5
6708
330
1F
100
AcDbEntity
  8
太線
100
AcDbLine
 10
798.3140933778729
 20
3395.347035543044
 30
0.0
 11
795.6621352116663
 21
3390.803651236758
 31
0.0
  0
LINE
  5
6709
330
1F
100
AcDbEntity
  8
太線
100
AcDbLine
 10
760.7912955606114
 20
3411.130843518316
 30
0.0
 11
745.2405333479195
 21
3420.195819778865
 31
0.0
  0
LINE
  5
670A
330
1F
100
AcDbEntity
  8
太線
100
AcDbLine
 10
1177.389703250086
 20
3168.283925519342
 30
0.0
 11
1179.913936123571
 21
3172.608488466427
 31
0.0
  0
LINE
  5
670B
330
1F
100
AcDbEntity
  8
太線
100
AcDbLine
 10
1179.913936123571
 20
3172.608488466427
 30
0.0
 11
1093.55025919914
 21
3223.018676740959
 31
0.0
  0
LINE
  5
670C
330
1F
100
AcDbEntity
  8
太線
100
AcDbLine
 10
1093.55025919914
 20
3223.018676740959
 30
0.0
 11
1090.997119537235
 21
3218.644590143564
 31
0.0
  0
LINE
  5
670D
330
1F
100
AcDbEntity
  8
太線
100
AcDbLine
 10
1125.251904487917
 20
3198.676513457607
 30
0.0
 11
1142.530529168686
 21
3188.604317612554
 31
0.0
  0
HATCH
  5
670E
330
1F
100
AcDbEntity
  8
太線
100
AcDbHatch
 10
0.0
 20
0.0
 30
0.0
210
0.0
220
0.0
230
1.0
  2
ANGLE
 70
     0
 71
     0
 91
        3
 92
        7
 72
     0
 73
     1
 93
        5
 10
1142.530529168686
 20
3188.604317612554
 10
1137.778907381475
 20
3191.374171469944
 10
1140.313901088169
 20
3195.722895968545
 10
1179.913936123571
 20
3172.608488466427
 10
1177.389703250087
 20
3168.283925519342
 97
        0
 92
        7
 72
     0
 73
     1
 93
        5
 10
1090.997119537235
 20
3218.644590143564
 10
1093.55025919914
 20
3223.018676740959
 10
1132.54111905316
 20
3200.259842747046
 10
1130.003526275128
 20
3195.906659600218
 10
1125.251904487917
 20
3198.676513457607
 97
        0
 92
        7
 72
     0
 73
     1
 93
        4
 10
1140.272519635563
 20
3195.747050183503
 10
1137.71660464825
 20
3191.410489483809
 10
1130.435491892148
 20
3195.654854704092
 10
1132.972940277327
 20
3200.007790148241
 97
        0
 75
     0
 76
     1
 52
-30.07114413575176
 41
0.9999999999999998
 77
     0
 78
     2
 53
149.7280341126044
 43
2345.455194765642
 44
1934.944760728724
 45
3.521174226391202
 46
6.032541509794882
 79
     2
 49
5.079999999999997
 49
-1.904999999999999
 53
59.72803411260446
 43
2345.455194765642
 44
1934.944760728724
 45
6.032541509794881
 46
-3.521174226391202
 79
     2
 49
5.08
 49
-1.905
 47
0.7729242666222831
 98
        3
 10
1168.952837930279
 20
3175.862308686243
 10
1120.45755075497
 20
3203.273889167116
 10
1135.935585298962
 20
3196.029324030854
  0
HATCH
  5
670F
330
1F
100
AcDbEntity
  8
太線
100
AcDbHatch
 10
0.0
 20
0.0
 30
0.0
210
0.0
220
0.0
230
1.0
  2
ANGLE
 70
     0
 71
     0
 91
        3
 92
        7
 72
     0
 73
     1
 93
        5
 10
798.3140933778725
 20
3395.347035543044
 10
795.6621352116663
 20
3390.803651236758
 10
760.7912955606114
 20
3411.130843518316
 10
759.4953987095543
 20
3411.886258206696
 10
762.156840986544
 20
3416.451902374171
 97
        0
 92
        7
 72
     0
 73
     1
 93
        4
 10
761.7250197623768
 20
3416.703954972978
 10
759.0634330925349
 20
3412.138063102823
 10
752.1519832202265
 20
3416.166941440843
 10
754.8158801757003
 20
3420.736796553866
 97
        0
 92
        7
 72
     0
 73
     1
 93
        9
 10
745.2405333479257
 20
3420.195819778884
 10
727.6141906190762
 20
3389.958226587519
 10
714.6552221084998
 20
3397.512373471308
 10
716.1660514852542
 20
3400.10416717342
 10
717.8449389092693
 20
3402.553061800442
 10
725.41614085589
 20
3398.133776642775
 10
742.7278581890464
 20
3427.792534404712
 10
754.3840589515341
 20
3420.988849152672
 10
751.7200176032079
 20
3416.418746336971
 97
        0
 75
     0
 76
     1
 52
-30.07114413575176
 41
0.9999999999999998
 77
     0
 78
     2
 53
149.7280341126044
 43
2345.455194765642
 44
1934.944760728724
 45
3.521174226391202
 46
6.032541509794882
 79
     2
 49
5.079999999999997
 49
-1.904999999999999
 53
59.72803411260446
 43
2345.455194765642
 44
1934.944760728724
 45
6.032541509794881
 46
-3.521174226391202
 79
     2
 49
5.08
 49
-1.905
 47
0.6995546125075407
 98
        3
 10
775.154168453916
 20
3406.105192426632
 10
756.4080839033861
 20
3417.047219043091
 10
746.3800508464387
 20
3422.090620797337
  0
TEXT
  5
67AE
330
1F
100
AcDbEntity
  8
文字
100
AcDbText
 10
1137.903543155465
 20
3307.862044995156
 30
0.0
 40
40.0
  1
両止め金具
 50
347.6353635316784
 51
15.0
  7
OKANO
100
AcDbText
  0
TEXT
  5
67AF
330
1F
100
AcDbEntity
  8
文字
100
AcDbText
 10
822.1686016110638
 20
3419.13785733375
 30
0.0
 40
40.0
  1
29-1US
 50
347.6353635316784
 51
15.0
  7
OKANO
100
AcDbText
  0
TEXT
  5
67B0
330
1F
100
AcDbEntity
  8
文字
100
AcDbText
 10
1239.187855230004
 20
3226.339026030095
 30
0.0
 40
40.0
  1
29-1UW（40～20選択）
 50
347.6353635316784
 51
15.0
  7
OKANO
100
AcDbText
  0
TEXT
  5
67B1
330
1F
100
AcDbEntity
  8
文字
100
AcDbText
 10
804.3541096502449
 20
3510.064479835011
 30
0.0
 40
40.0
  1
片止め金具
 50
347.6353635316784
 51
15.0
  7
OKANO
100
AcDbText
  0
HATCH
  5
67B2
330
1F
100
AcDbEntity
  8
太線
100
AcDbHatch
 10
0.0
 20
0.0
 30
0.0
210
0.0
220
0.0
230
1.0
  2
ANGLE
 70
     0
 71
     0
 91
        3
 92
        7
 72
     0
 73
     1
 93
        5
 10
2152.784105186461
 20
2607.92662430214
 10
2150.148087842843
 20
2603.373972807235
 10
2185.066764818105
 20
2583.129067217967
 10
2186.364439436443
 20
2582.376710530671
 10
2189.015107904701
 20
2586.948618046045
 97
        0
 92
        7
 72
     0
 73
     1
 93
        4
 10
2189.447809919149
 20
2586.698080526103
 10
2186.796997642556
 20
2582.12592496824
 10
2193.717928940365
 20
2578.113355969328
 10
2196.3710421503
 20
2582.689480207006
 97
        0
 92
        7
 72
     0
 73
     1
 93
        9
 10
2200.638860238185
 20
2574.100786970432
 10
2183.083870867935
 20
2543.821712542508
 10
2196.060617051324
 20
2536.298145669549
 10
2197.565330425915
 20
2538.893494906223
 10
2198.862707969153
 20
2541.564180096782
 10
2191.276062962516
 20
2545.956901094588
 10
2208.483720202178
 20
2575.676154135785
 10
2196.803744164747
 20
2582.438942687063
 10
2194.150487146477
 20
2577.862570406896
 97
        0
 75
     0
 76
     1
 52
-30.07114413575176
 41
0.9999999999999998
 77
     0
 78
     2
 53
329.9288558642481
 43
118.155512613536
 44
3229.784230326957
 45
3.500008578167704
 46
6.044846147980317
 79
     2
 49
5.079999999999999
 49
-1.904999999999999
 53
59.92885586424824
 43
118.155512613536
 44
3229.784230326957
 45
-6.044846147980317
 46
3.500008578167705
 79
     2
 49
5.079999999999999
 49
-1.904999999999999
 47
0.6995546125075407
 98
        3
 10
2173.592632886028
 20
2593.123744954137
 10
2192.37695402182
 20
2582.247490455535
 10
2201.721611101546
 20
2576.028589241631
  0
HATCH
  5
67B3
330
1F
100
AcDbEntity
  8
太線
100
AcDbHatch
 10
0.0
 20
0.0
 30
0.0
210
0.0
220
0.0
230
1.0
  2
ANGLE
 70
     0
 71
     0
 91
        3
 92
        7
 72
     0
 73
     1
 93
        5
 10
1802.803844838745
 20
2804.754781466614
 10
1807.561985105988
 20
2801.996140279863
 10
1810.086716881562
 20
2806.35083054659
 10
1770.405909239383
 20
2829.326298198923
 10
1767.896849436471
 20
2824.99291439544
 97
        0
 92
        7
 72
     0
 73
     1
 93
        5
 10
1854.407950227703
 20
2774.836115236555
 10
1856.945743061399
 20
2779.219123704256
 10
1817.875353141607
 20
2801.841155187608
 10
1815.348032816022
 20
2797.482000156087
 10
1820.106173083265
 20
2794.723358969335
 97
        0
 92
        7
 72
     0
 73
     1
 93
        4
 10
1810.128182740351
 20
2806.326821521727
 10
1807.624373308794
 20
2801.959969285281
 10
1814.915474609909
 20
2797.732785718519
 10
1817.44265112716
 20
2802.091692707551
 97
        0
 75
     0
 76
     1
 52
-30.07114413575176
 41
0.9999999999999998
 77
     0
 78
     2
 53
329.9288558642481
 43
118.155512613536
 44
3229.784230326957
 45
3.500008578167704
 46
6.044846147980317
 79
     2
 49
5.079999999999999
 49
-1.904999999999999
 53
59.92885586424824
 43
118.155512613536
 44
3229.784230326957
 45
-6.044846147980317
 46
3.500008578167705
 79
     2
 49
5.079999999999999
 49
-1.904999999999999
 47
0.7729242666222831
 98
        3
 10
1778.657097961567
 20
2821.411065776766
 10
1826.473581233846
 20
2792.831850424576
 10
1812.519416478271
 20
2802.697678485758
  0
TEXT
  5
67B4
330
1F
100
AcDbEntity
  8
文字
100
AcDbText
 10
1682.860429157444
 20
3029.125263173802
 30
0.0
 40
40.0
  1
ソラーパネル
 50
329.9288558642482
 51
15.0
  7
OKANO
100
AcDbText
  0
TEXT
  5
67B5
330
1F
100
AcDbEntity
  8
文字
100
AcDbText
 10
1147.903758725384
 20
2946.242036178562
 30
0.0
 40
40.0
  1
単管（48.6）パイプ
 50
329.9288558642482
 51
15.0
  7
OKANO
100
AcDbText
  0
LINE
  5
67B6
330
1F
100
AcDbEntity
  8
太線
100
AcDbLine
 10
1820.106173083265
 20
2794.723358969335
 30
0.0
 11
1802.803844838745
 21
2804.754781466614
 31
0.0
  0
LINE
  5
67B7
330
1F
100
AcDbEntity
  8
太線
100
AcDbLine
 10
1856.945743061399
 20
2779.219123704256
 30
0.0
 11
1854.407950227703
 21
2774.836115236555
 31
0.0
  0
LINE
  5
67B8
330
1F
100
AcDbEntity
  8
太線
100
AcDbLine
 10
1770.405909239383
 20
2829.326298198923
 30
0.0
 11
1856.945743061399
 21
2779.219123704256
 31
0.0
  0
LINE
  5
67B9
330
1F
100
AcDbEntity
  8
太線
100
AcDbLine
 10
1767.896849436471
 20
2824.992914395439
 30
0.0
 11
1770.405909239383
 21
2829.326298198923
 31
0.0
  0
LINE
  5
67BA
330
1F
100
AcDbEntity
  8
太線
100
AcDbLine
 10
2185.066764818105
 20
2583.129067217967
 30
0.0
 11
2200.638860238172
 21
2574.100786970417
 31
0.0
  0
LINE
  5
67BB
330
1F
100
AcDbEntity
  8
太線
100
AcDbLine
 10
2152.784105186461
 20
2607.92662430214
 30
0.0
 11
2150.148087842843
 21
2603.373972807235
 31
0.0
  0
LINE
  5
67BC
330
1F
100
AcDbEntity
  8
太線
100
AcDbLine
 10
2208.483720202178
 20
2575.676154135785
 30
0.0
 11
2152.784105186461
 21
2607.92662430214
 31
0.0
  0
LINE
  5
67BD
330
1F
100
AcDbEntity
  8
太線
100
AcDbLine
 10
2191.276062962518
 20
2545.956901094588
 30
0.0
 11
2208.483720202178
 21
2575.676154135785
 31
0.0
  0
LINE
  5
67BE
330
1F
100
AcDbEntity
  8
太線
100
AcDbLine
 10
2198.862707969153
 20
2541.564180096782
 30
0.0
 11
2191.276062962518
 21
2545.956901094588
 31
0.0
  0
LINE
  5
67BF
330
1F
100
AcDbEntity
  8
太線
100
AcDbLine
 10
2197.565330425916
 20
2538.893494906227
 30
0.0
 11
2198.862707969153
 21
2541.564180096782
 31
0.0
  0
LINE
  5
67C0
330
1F
100
AcDbEntity
  8
太線
100
AcDbLine
 10
1468.259271282032
 20
2900.462014511604
 30
0.0
 11
1559.437474205186
 21
2847.59935561745
 31
0.0
  0
LINE
  5
67C1
330
1F
100
AcDbEntity
  8
太線
100
AcDbLine
 10
2254.43958191299
 20
2502.451598938671
 30
0.0
 11
2176.162939570128
 21
2547.834281541419
 31
0.0
  0
LINE
  5
67C2
330
1F
100
AcDbEntity
  8
太線
100
AcDbLine
 10
2167.511775447868
 20
2552.849992790058
 30
0.0
 11
2185.066764818105
 21
2583.129067217967
 31
0.0
  0
LINE
  5
67C3
330
1F
100
AcDbEntity
  8
太線
100
AcDbLine
 10
2185.066764818105
 20
2583.129067217967
 30
0.0
 11
1988.967369491522
 21
2696.82219904286
 31
0.0
  0
LINE
  5
67C4
330
1F
100
AcDbEntity
  8
太線
100
AcDbLine
 10
2200.638860238172
 20
2574.100786970417
 30
0.0
 11
2183.083870867935
 21
2543.821712542508
 31
0.0
  0
LINE
  5
67C5
330
1F
100
AcDbEntity
  8
太線
100
AcDbLine
 10
2197.565330425916
 20
2538.893494906227
 30
0.0
 11
2196.060617051324
 21
2536.298145669549
 31
0.0
  0
LINE
  5
67C6
330
1F
100
AcDbEntity
  8
細線
100
AcDbLine
 10
2209.699192017259
 20
2604.681179185902
 30
0.0
 11
2205.435837455915
 21
2597.327689681981
 31
0.0
  0
LINE
  5
67C7
330
1F
100
AcDbEntity
  8
太線
100
AcDbLine
 10
2209.76820493601
 20
2605.797081160559
 30
0.0
 11
2205.003279249802
 21
2597.578475244413
 31
0.0
  0
LINE
  5
67C8
330
1F
100
AcDbEntity
  8
太線
100
AcDbLine
 10
2202.847273638201
 20
2609.809650159471
 30
0.0
 11
2198.082347951994
 21
2601.591044243324
 31
0.0
  0
LINE
  5
67C9
330
1F
100
AcDbEntity
  8
細線
100
AcDbLine
 10
2201.913144307225
 20
2609.195319309677
 30
0.0
 11
2197.649789745882
 21
2601.841829805755
 31
0.0
  0
LINE
  5
67CA
330
1F
100
AcDbEntity
  8
太線
100
AcDbLine
 10
2163.62366144853
 20
2526.206371235769
 30
0.0
 11
2149.078098827476
 21
2501.117995281216
 31
0.0
  0
LINE
  5
67CB
330
1F
100
AcDbEntity
  8
太線
100
AcDbLine
 10
2156.702730150722
 20
2530.21894023468
 30
0.0
 11
2142.157167529668
 21
2505.130564280127
 31
0.0
  0
ARC
  5
67CC
330
1F
100
AcDbEntity
  8
太線
100
AcDbCircle
 10
2145.617633178572
 20
2503.124279780672
 30
0.0
 40
4.0
100
AcDbArc
 50
149.8960006647149
 51
329.896000664715
  0
LINE
  5
67CD
330
1F
100
AcDbEntity
  8
太線
100
AcDbLine
 10
2209.76820493601
 20
2605.797081160559
 30
0.0
 11
2202.847273638201
 21
2609.809650159471
 31
0.0
  0
LINE
  5
67CE
330
1F
100
AcDbEntity
  8
細線
100
AcDbLine
 10
2201.913144307225
 20
2609.195319309677
 30
0.0
 11
2202.847273638201
 21
2609.809650159471
 31
0.0
  0
LINE
  5
67CF
330
1F
100
AcDbEntity
  8
細線
100
AcDbLine
 10
2209.76820493601
 20
2605.797081160559
 30
0.0
 11
2209.699192017259
 21
2604.681179185902
 31
0.0
  0
ARC
  5
67D0
330
1F
100
AcDbEntity
  8
太線
100
AcDbCircle
 10
2206.664499155503
 20
2595.459431020028
 30
0.0
 40
1.0
100
AcDbArc
 50
329.896000664715
 51
59.89600066471497
  0
ARC
  5
67D1
330
1F
100
AcDbEntity
  8
太線
100
AcDbCircle
 10
2195.417985796565
 20
2601.979855643258
 30
0.0
 40
1.0
100
AcDbArc
 50
59.89600066471497
 51
149.8960006647149
  0
ARC
  5
67D2
330
1F
100
AcDbEntity
  8
太線
100
AcDbCircle
 10
2204.642912191824
 20
2589.696009725328
 30
0.0
 40
1.0
100
AcDbArc
 50
329.896000664715
 51
59.89600066471497
  0
ARC
  5
67D3
330
1F
100
AcDbEntity
  8
太線
100
AcDbCircle
 10
2191.420719261878
 20
2597.361879991246
 30
0.0
 40
1.0
100
AcDbArc
 50
59.89600066471497
 51
149.8960006647149
  0
ARC
  5
67D4
330
1F
100
AcDbEntity
  8
太線
100
AcDbCircle
 10
2205.49988945237
 20
2594.945998417447
 30
0.0
 40
2.029760773594802
100
AcDbArc
 50
0.3348259011313672
 51
119.4571754282985
  0
ARC
  5
67D5
330
1F
100
AcDbEntity
  8
太線
100
AcDbCircle
 10
2195.596194349147
 20
2600.791930687403
 30
0.0
 40
1.985679729703703
100
AcDbArc
 50
358.0951702514036
 51
121.6968310780261
  0
ARC
  5
67D6
330
1F
100
AcDbEntity
  8
太線
100
AcDbCircle
 10
2197.279459039555
 20
2592.231270239948
 30
0.0
 40
8.499999999999836
100
AcDbArc
 50
31.82351372886047
 51
87.96848760056944
  0
LINE
  5
67D7
330
1F
100
AcDbEntity
  8
太線
100
AcDbLine
 10
2204.501708124938
 20
2596.713358832187
 30
0.0
 11
2201.993852500619
 21
2592.387776771057
 31
0.0
  0
LINE
  5
67D8
330
1F
100
AcDbEntity
  8
太線
100
AcDbLine
 10
2197.58077682713
 20
2600.725927831099
 30
0.0
 11
2195.072921202811
 21
2596.400345769968
 31
0.0
  0
LINE
  5
67D9
330
1F
100
AcDbEntity
  8
太線
100
AcDbLine
 10
2192.04501376002
 20
2598.155844706992
 30
0.0
 11
2205.021759943409
 21
2590.632277834034
 31
0.0
  0
LINE
  5
67DA
330
1F
100
AcDbEntity
  8
太線
100
AcDbLine
 10
2205.50802860405
 20
2589.194438600464
 30
0.0
 11
2205.257243041618
 21
2588.761880394351
 31
0.0
  0
LINE
  5
67DB
330
1F
100
AcDbEntity
  8
太線
100
AcDbLine
 10
2205.021759943409
 20
2590.632277834034
 30
0.0
 11
2205.144483316688
 21
2590.561126137554
 31
0.0
  0
LINE
  5
67DC
330
1F
100
AcDbEntity
  8
太線
100
AcDbLine
 10
2207.529615567729
 20
2594.957859895163
 30
0.0
 11
2205.021759943409
 21
2590.632277834034
 31
0.0
  0
LINE
  5
67DD
330
1F
100
AcDbEntity
  8
太線
100
AcDbLine
 10
2195.919556921429
 20
2602.844972055484
 30
0.0
 11
2207.166070280367
 21
2596.324547432253
 31
0.0
  0
LINE
  5
67DE
330
1F
100
AcDbEntity
  8
太線
100
AcDbLine
 10
2192.04501376002
 20
2598.155844706992
 30
0.0
 11
2194.55286938434
 21
2602.481426768122
 31
0.0
  0
LINE
  5
67DF
330
1F
100
AcDbEntity
  8
太線
100
AcDbLine
 10
2191.922290386742
 20
2598.226996403472
 30
0.0
 11
2192.04501376002
 21
2598.155844706992
 31
0.0
  0
LINE
  5
67E0
330
1F
100
AcDbEntity
  8
太線
100
AcDbLine
 10
2190.30481728722
 20
2597.430892909996
 30
0.0
 11
2190.555602849652
 21
2597.86345111611
 31
0.0
  0
LINE
  5
67E1
330
1F
100
AcDbEntity
  8
太線
100
AcDbLine
 10
2190.30481728722
 20
2597.430892909996
 30
0.0
 11
2205.257243041618
 21
2588.761880394351
 31
0.0
  0
LINE
  5
67E2
330
1F
100
AcDbEntity
  8
細線
100
AcDbLine
 10
2189.134775897838
 20
2569.211406284637
 30
0.0
 11
2188.200646566861
 21
2568.597075434843
 31
0.0
  0
LINE
  5
67E3
330
1F
100
AcDbEntity
  8
細線
100
AcDbLine
 10
2201.674054019436
 20
2590.839316590286
 30
0.0
 11
2189.134775897838
 21
2569.211406284637
 31
0.0
  0
LINE
  5
67E4
330
1F
100
AcDbEntity
  8
細線
100
AcDbLine
 10
2181.348728187804
 20
2573.725546408411
 30
0.0
 11
2193.888006309402
 21
2595.353456714061
 31
0.0
  0
LINE
  5
67E5
330
1F
100
AcDbEntity
  8
細線
100
AcDbLine
 10
2181.279715269053
 20
2572.609644433754
 30
0.0
 11
2181.348728187804
 21
2573.725546408411
 31
0.0
  0
LINE
  5
67E6
330
1F
100
AcDbEntity
  8
細線
100
AcDbLine
 10
2188.200646566861
 20
2568.597075434843
 30
0.0
 11
2181.279715269053
 21
2572.609644433754
 31
0.0
  0
LINE
  5
67E7
330
1F
100
AcDbEntity
  8
太線
100
AcDbLine
 10
2194.320564515515
 20
2595.10267115163
 30
0.0
 11
2156.702730150722
 21
2530.21894023468
 31
0.0
  0
LINE
  5
67E8
330
1F
100
AcDbEntity
  8
太線
100
AcDbLine
 10
2163.62366144853
 20
2526.206371235769
 30
0.0
 11
2201.241495813324
 21
2591.090102152718
 31
0.0
  0
LINE
  5
67E9
330
1F
100
AcDbEntity
  8
太線
100
AcDbLine
 10
1820.106173083265
 20
2794.723358969336
 30
0.0
 11
1802.551183713029
 21
2764.444284541426
 31
0.0
  0
LINE
  5
67EA
330
1F
100
AcDbEntity
  8
太線
100
AcDbLine
 10
1802.803844838745
 20
2804.754781466614
 30
0.0
 11
1785.248855468509
 21
2774.475707038705
 31
0.0
  0
LINE
  5
67EB
330
1F
100
AcDbEntity
  8
太線
100
AcDbLine
 10
1785.248855468509
 20
2774.475707038705
 30
0.0
 11
1790.439553941865
 21
2771.466280289521
 31
0.0
  0
LINE
  5
67EC
330
1F
100
AcDbEntity
  8
太線
100
AcDbLine
 10
1802.803844838745
 20
2804.754781466614
 30
0.0
 11
1630.083497621019
 21
2904.893372778243
 31
0.0
  0
LINE
  5
67ED
330
1F
100
AcDbEntity
  8
細線
100
AcDbLine
 10
1830.896737686804
 20
2824.300608935092
 30
0.0
 11
1826.633383125461
 21
2816.947119431171
 31
0.0
  0
LINE
  5
67EE
330
1F
100
AcDbEntity
  8
太線
100
AcDbLine
 10
1830.965750605554
 20
2825.41651090975
 30
0.0
 11
1826.200824919347
 21
2817.197904993603
 31
0.0
  0
LINE
  5
67EF
330
1F
100
AcDbEntity
  8
太線
100
AcDbLine
 10
1824.044819307747
 20
2829.429079908662
 30
0.0
 11
1819.27989362154
 21
2821.210473992515
 31
0.0
  0
LINE
  5
67F0
330
1F
100
AcDbEntity
  8
細線
100
AcDbLine
 10
1823.11068997677
 20
2828.814749058868
 30
0.0
 11
1818.847335415427
 21
2821.461259554947
 31
0.0
  0
LINE
  5
67F1
330
1F
100
AcDbEntity
  8
太線
100
AcDbLine
 10
1784.821207118075
 20
2745.82580098496
 30
0.0
 11
1770.275644497021
 21
2720.737425030407
 31
0.0
  0
ARC
  5
67F2
330
1F
100
AcDbEntity
  8
太線
100
AcDbCircle
 10
1766.815178848117
 20
2722.743709529863
 30
0.0
 40
4.0
100
AcDbArc
 50
149.8960006647149
 51
329.896000664715
  0
LINE
  5
67F3
330
1F
100
AcDbEntity
  8
太線
100
AcDbLine
 10
1830.965750605554
 20
2825.41651090975
 30
0.0
 11
1824.044819307747
 21
2829.429079908662
 31
0.0
  0
LINE
  5
67F4
330
1F
100
AcDbEntity
  8
細線
100
AcDbLine
 10
1823.11068997677
 20
2828.814749058868
 30
0.0
 11
1824.044819307747
 21
2829.429079908662
 31
0.0
  0
LINE
  5
67F5
330
1F
100
AcDbEntity
  8
細線
100
AcDbLine
 10
1830.965750605554
 20
2825.41651090975
 30
0.0
 11
1830.896737686804
 21
2824.300608935092
 31
0.0
  0
ARC
  5
67F6
330
1F
100
AcDbEntity
  8
太線
100
AcDbCircle
 10
1827.862044825048
 20
2815.078860769218
 30
0.0
 40
1.0
100
AcDbArc
 50
329.896000664715
 51
59.89600066471497
  0
ARC
  5
67F7
330
1F
100
AcDbEntity
  8
太線
100
AcDbCircle
 10
1816.615531466111
 20
2821.599285392448
 30
0.0
 40
1.0
100
AcDbArc
 50
59.89600066471497
 51
149.8960006647149
  0
ARC
  5
67F8
330
1F
100
AcDbEntity
  8
太線
100
AcDbCircle
 10
1825.840457861369
 20
2809.315439474518
 30
0.0
 40
1.0
100
AcDbArc
 50
329.896000664715
 51
59.89600066471497
  0
ARC
  5
67F9
330
1F
100
AcDbEntity
  8
太線
100
AcDbCircle
 10
1812.618264931423
 20
2816.981309740436
 30
0.0
 40
1.0
100
AcDbArc
 50
59.89600066471497
 51
149.8960006647149
  0
ARC
  5
67FA
330
1F
100
AcDbEntity
  8
太線
100
AcDbCircle
 10
1826.697435121915
 20
2814.565428166637
 30
0.0
 40
2.029760773594802
100
AcDbArc
 50
0.3348259011313672
 51
119.4571754282985
  0
ARC
  5
67FB
330
1F
100
AcDbEntity
  8
太線
100
AcDbCircle
 10
1816.793740018693
 20
2820.411360436594
 30
0.0
 40
1.985679729703703
100
AcDbArc
 50
358.0951702514036
 51
121.6968310780261
  0
ARC
  5
67FC
330
1F
100
AcDbEntity
  8
太線
100
AcDbCircle
 10
1818.4770047091
 20
2811.850699989138
 30
0.0
 40
8.499999999999836
100
AcDbArc
 50
31.82351372886047
 51
87.96848760056944
  0
LINE
  5
67FD
330
1F
100
AcDbEntity
  8
太線
100
AcDbLine
 10
1825.699253794484
 20
2816.332788581378
 30
0.0
 11
1823.191398170164
 21
2812.007206520248
 31
0.0
  0
LINE
  5
67FE
330
1F
100
AcDbEntity
  8
太線
100
AcDbLine
 10
1818.778322496676
 20
2820.345357580288
 30
0.0
 11
1816.270466872356
 21
2816.019775519159
 31
0.0
  0
LINE
  5
67FF
330
1F
100
AcDbEntity
  8
太線
100
AcDbLine
 10
1813.242559429566
 20
2817.775274456183
 30
0.0
 11
1826.219305612955
 21
2810.251707583224
 31
0.0
  0
LINE
  5
6800
330
1F
100
AcDbEntity
  8
太線
100
AcDbLine
 10
1826.705574273595
 20
2808.813868349655
 30
0.0
 11
1826.454788711163
 21
2808.381310143542
 31
0.0
  0
LINE
  5
6801
330
1F
100
AcDbEntity
  8
太線
100
AcDbLine
 10
1826.219305612955
 20
2810.251707583224
 30
0.0
 11
1826.342028986233
 21
2810.180555886745
 31
0.0
  0
LINE
  5
6802
330
1F
100
AcDbEntity
  8
太線
100
AcDbLine
 10
1828.727161237274
 20
2814.577289644354
 30
0.0
 11
1826.219305612955
 21
2810.251707583224
 31
0.0
  0
LINE
  5
6803
330
1F
100
AcDbEntity
  8
太線
100
AcDbLine
 10
1817.117102590975
 20
2822.464401804674
 30
0.0
 11
1828.363615949913
 21
2815.943977181444
 31
0.0
  0
LINE
  5
6804
330
1F
100
AcDbEntity
  8
太線
100
AcDbLine
 10
1813.242559429566
 20
2817.775274456183
 30
0.0
 11
1815.750415053885
 21
2822.100856517312
 31
0.0
  0
LINE
  5
6805
330
1F
100
AcDbEntity
  8
太線
100
AcDbLine
 10
1813.119836056287
 20
2817.846426152662
 30
0.0
 11
1813.242559429566
 21
2817.775274456183
 31
0.0
  0
LINE
  5
6806
330
1F
100
AcDbEntity
  8
太線
100
AcDbLine
 10
1811.502362956765
 20
2817.050322659187
 30
0.0
 11
1811.753148519198
 21
2817.4828808653
 31
0.0
  0
LINE
  5
6807
330
1F
100
AcDbEntity
  8
太線
100
AcDbLine
 10
1811.502362956765
 20
2817.050322659187
 30
0.0
 11
1826.454788711163
 21
2808.381310143542
 31
0.0
  0
LINE
  5
6808
330
1F
100
AcDbEntity
  8
細線
100
AcDbLine
 10
1810.332321567384
 20
2788.830836033827
 30
0.0
 11
1809.398192236407
 21
2788.216505184033
 31
0.0
  0
LINE
  5
6809
330
1F
100
AcDbEntity
  8
細線
100
AcDbLine
 10
1822.871599688981
 20
2810.458746339477
 30
0.0
 11
1810.332321567384
 21
2788.830836033827
 31
0.0
  0
LINE
  5
680A
330
1F
100
AcDbEntity
  8
細線
100
AcDbLine
 10
1802.546273857349
 20
2793.344976157602
 30
0.0
 11
1815.085551978947
 21
2814.972886463252
 31
0.0
  0
LINE
  5
680B
330
1F
100
AcDbEntity
  8
細線
100
AcDbLine
 10
1802.477260938599
 20
2792.229074182944
 30
0.0
 11
1802.546273857349
 21
2793.344976157602
 31
0.0
  0
LINE
  5
680C
330
1F
100
AcDbEntity
  8
細線
100
AcDbLine
 10
1809.398192236407
 20
2788.216505184033
 30
0.0
 11
1802.477260938599
 21
2792.229074182944
 31
0.0
  0
LINE
  5
680D
330
1F
100
AcDbEntity
  8
太線
100
AcDbLine
 10
1784.821207118075
 20
2745.82580098496
 30
0.0
 11
1822.439041482868
 21
2810.709531901909
 31
0.0
  0
LINE
  5
680E
330
1F
100
AcDbEntity
  8
太線
100
AcDbLine
 10
1615.871222757416
 20
2913.133265802431
 30
0.0
 11
1510.892816895464
 21
2973.996909550812
 31
0.0
  0
LINE
  5
680F
330
1F
100
AcDbEntity
  8
太線
100
AcDbLine
 10
1592.633796882968
 20
2886.148714549793
 30
0.0
 11
1493.337827525228
 21
2943.717835122903
 31
0.0
  0
LINE
  5
6810
330
1F
100
AcDbEntity
  8
太線
100
AcDbLine
 10
1573.649749068788
 20
2839.359462593261
 30
0.0
 11
1765.36099769867
 21
2728.210459678222
 31
0.0
  0
LINE
  5
6811
330
1F
100
AcDbEntity
  8
太線
100
AcDbLine
 10
1974.75509462792
 20
2705.062092067048
 30
0.0
 11
1820.106173083265
 21
2794.723358969335
 31
0.0
  0
LINE
  5
6812
330
1F
100
AcDbEntity
  8
太線
100
AcDbLine
 10
1951.517668753472
 20
2678.077540814409
 30
0.0
 11
1797.360485239672
 21
2767.45371129061
 31
0.0
  0
LINE
  5
6813
330
1F
100
AcDbEntity
  8
太線
100
AcDbLine
 10
1932.533620939292
 20
2631.288288857878
 30
0.0
 11
2144.163452029124
 21
2508.591029929032
 31
0.0
  0
LINE
  5
6814
330
1F
100
AcDbEntity
  8
太線
100
AcDbLine
 10
1615.871222757416
 20
2913.133265802431
 30
0.0
 11
1630.083497621019
 21
2904.893372778243
 31
0.0
  0
LINE
  5
6815
330
1F
100
AcDbEntity
  8
太線
100
AcDbLine
 10
1592.633796882968
 20
2886.148714549793
 30
0.0
 11
1606.846071746571
 21
2877.908821525604
 31
0.0
  0
LINE
  5
6816
330
1F
100
AcDbEntity
  8
太線
100
AcDbLine
 10
1559.437474205186
 20
2847.59935561745
 30
0.0
 11
1573.649749068788
 21
2839.359462593261
 31
0.0
  0
LINE
  5
6817
330
1F
100
AcDbEntity
  8
太線
100
AcDbLine
 10
1974.75509462792
 20
2705.062092067048
 30
0.0
 11
1988.967369491522
 21
2696.82219904286
 31
0.0
  0
LINE
  5
6818
330
1F
100
AcDbEntity
  8
太線
100
AcDbLine
 10
1951.517668753472
 20
2678.077540814409
 30
0.0
 11
1965.729943617075
 21
2669.837647790219
 31
0.0
  0
LINE
  5
6819
330
1F
100
AcDbEntity
  8
太線
100
AcDbLine
 10
1918.321346075689
 20
2639.528181882067
 30
0.0
 11
1932.533620939292
 21
2631.288288857878
 31
0.0
  0
LINE
  5
681A
330
1F
100
AcDbEntity
  8
太線
100
AcDbLine
 10
1772.281928996477
 20
2724.197890679311
 30
0.0
 11
1918.321346075689
 21
2639.528181882067
 31
0.0
  0
LINE
  5
681B
330
1F
100
AcDbEntity
  8
太線
100
AcDbLine
 10
2150.896525689737
 20
2504.252884976311
 30
0.0
 11
2230.018499319461
 21
2458.818233573256
 31
0.0
  0
LINE
  5
681C
330
1F
100
AcDbEntity
  8
太線
100
AcDbLine
 10
2169.242008272319
 20
2551.84685054033
 30
0.0
 11
1965.729943617075
 21
2669.837647790219
 31
0.0
  0
LINE
  5
681D
330
1F
100
AcDbEntity
  8
太線
100
AcDbLine
 10
1790.439553941865
 20
2771.466280289521
 30
0.0
 11
1606.846071746571
 21
2877.908821525604
 31
0.0
  0
LINE
  5
681E
330
1F
100
AcDbEntity
  8
太線
100
AcDbLine
 10
1797.360485239672
 20
2767.45371129061
 30
0.0
 11
1865.539047909636
 21
2727.925622484631
 31
0.0
  0
LINE
  5
681F
330
1F
100
AcDbEntity
  8
太線
100
AcDbLine
 10
1815.085551978947
 20
2814.972886463252
 30
0.0
 11
1763.354713199214
 21
2724.749994029318
 31
0.0
  0
LINE
  5
6820
330
1F
100
AcDbEntity
  8
太線
100
AcDbLine
 10
1765.344360844588
 20
2728.220105276777
 30
0.0
 11
1765.344360844588
 21
2728.220105276777
 31
0.0
  0
LEADER
  5
694B
330
1F
100
AcDbEntity
  8
寸法線
100
AcDbLeader
  3
sunpo
 76
     3
 10
1147.903758725384
 20
3107.864496562135
 30
0.0
 10
1147.903758725384
 20
2979.395289700478
 30
0.0
 10
1147.903758725384
 20
2983.539469688345
 30
0.0
1001
ACAD
1000
DSTYLE
1002
{
1070
   147
1040
1.0
1070
    77
1070
     0
1002
}
  0
LEADER
  5
694C
330
1F
100
AcDbEntity
  8
寸法線
100
AcDbLeader
  3
sunpo
 76
     2
 10
1309.634772688034
 20
3078.855423028086
 30
0.0
 10
1674.566317998746
 20
3049.846163113077
 30
0.0
1001
ACAD
1000
DSTYLE
1002
{
1070
   147
1040
1.0
1070
    77
1070
     0
1002
}
  0
TEXT
  5
6972
330
1F
100
AcDbEntity
  8
文字
100
AcDbText
 10
2052.801591298833
 20
2820.468456713541
 30
0.0
 40
40.0
  1
29-1US40～20選択）-35
 50
347.6353635316784
 51
15.0
  7
OKANO
100
AcDbText
  0
LEADER
  5
6973
330
1F
100
AcDbEntity
  8
寸法線
100
AcDbLeader
  3
sunpo
 76
     2
 10
2175.023297772393
 20
2614.274674248765
 30
0.0
 10
2311.144776655477
 20
2754.539371053834
 30
0.0
1001
ACAD
1000
DSTYLE
1002
{
1070
   147
1040
1.0
1070
    77
1070
     0
1002
}
  0
LEADER
  5
6976
330
1F
100
AcDbEntity
  8
寸法線
100
AcDbLeader
  3
sunpo
 73
     0
 40
5.0
 76
     2
 10
1162.6194774881
 20
3192.335316322685
 30
0.0
 10
1315.756232971965
 20
3188.084899204492
 30
0.0
340
6977
213
22.26872878934955
223
-2.5
233
0.0
1001
ACAD
1000
DSTYLE
1002
{
1070
   147
1040
1.0
1070
    77
1070
     0
1002
}
  0
MTEXT
  5
6977
102
{ACAD_REACTORS
330
6976
102
}
330
1F
100
AcDbEntity
  8
太線
100
AcDbMText
 10
1294.487504182616
 20
3190.584899204492
 30
0.0
 40
5.0
 41
0.0
 71
     1
 72
     1
  1

  7
OKANO
 73
     1
 44
1.0
  0
ARC
  5
697A
330
1F
100
AcDbEntity
  8
太線
100
AcDbCircle
 10
652.5387611500631
 20
3401.307479317226
 30
0.0
 40
26.29002785796097
100
AcDbArc
 50
86.78248176659655
 51
213.6888803853515
  0
LEADER
  5
697D
330
1F
100
AcDbEntity
  8
寸法線
100
AcDbLeader
  3
sunpo
 76
     2
 10
644.069675646082
 20
3396.619067012536
 30
0.0
 10
557.2491240412346
 20
3453.341680233308
 30
0.0
1001
ACAD
1000
DSTYLE
1002
{
1070
   147
1040
1.0
1070
    77
1070
     0
1002
}
  0
LINE
  5
699D
330
1F
100
AcDbEntity
  8
太線
100
AcDbLine
 10
2073.968833731948
 20
2605.322037191628
 30
0.0
 11
2047.326237955236
 21
2566.095333099319
 31
0.0
  0
LINE
  5
699F
330
1F
100
AcDbEntity
  8
太線
100
AcDbLine
 10
2142.914594914318
 20
2563.167562134755
 30
0.0
 11
2119.141515456691
 21
2523.311810419979
 31
0.0
  0
LINE
  5
6A10
330
1F
100
AcDbEntity
  8
太線
100
AcDbLine
 10
-1109.750749835162
 20
2050.207885192532
 30
0.0
 11
-1118.571773362811
 21
1199.841908063215
 31
0.0
  0
LINE
  5
6A12
330
1F
100
AcDbEntity
  8
太線
100
AcDbLine
 10
-1114.161261598987
 20
1517.076789348095
 30
0.0
 11
-311.4440840054885
 21
1208.653998453403
 31
0.0
  0
LINE
  5
6A13
330
1F
100
AcDbEntity
  8
太線
100
AcDbLine
 10
-311.4440840054885
 20
1208.653998453403
 30
0.0
 11
-329.086131060787
 21
922.2612471532775
 31
0.0
  0
LINE
  5
6A16
330
1F
100
AcDbEntity
  8
太線
100
AcDbLine
 10
729.4421966809314
 20
2349.818585697037
 30
0.0
 11
680.9262003172189
 21
1724.160727136535
 31
0.0
  0
LINE
  5
6A17
330
1F
100
AcDbEntity
  8
太線
100
AcDbLine
 10
-130.6120008039288
 20
2213.231371030066
 30
0.0
 11
-174.7174854037584
 21
1512.670744153001
 31
0.0
  0
LINE
  5
6A18
330
1F
100
AcDbEntity
  8
太線
100
AcDbLine
 10
-157.07543834846
 20
1741.78490791691
 30
0.0
 11
672.1051767895696
 21
1530.294924933376
 31
0.0
  0
LINE
  5
6A19
330
1F
100
AcDbEntity
  8
太線
100
AcDbLine
 10
672.1051767895696
 20
1530.294924933376
 30
0.0
 11
654.4631297343293
 21
1270.338444803783
 31
0.0
  0
LINE
  5
6A1A
330
1F
100
AcDbEntity
  8
太線
100
AcDbLine
 10
685.3370790426851
 20
1962.08698129066
 30
0.0
 11
1395.433142634283
 21
1794.657450258033
 31
0.0
  0
LINE
  5
6A1B
330
1F
100
AcDbEntity
  8
太線
100
AcDbLine
 10
1395.433142634283
 20
1794.657450258033
 30
0.0
 11
1364.559193325927
 21
1561.137241299031
 31
0.0
  0
LINE
  5
6A1C
330
1F
100
AcDbEntity
  8
太線
100
AcDbLine
 10
-311.4440840054885
 20
1208.653998453403
 30
0.0
 11
1483.643744872359
 21
1816.687676233501
 31
0.0
  0
LINE
  5
6A1D
330
1F
100
AcDbEntity
  8
太線
100
AcDbLine
 10
-1105.340238071337
 20
2054.613930387626
 30
0.0
 11
857.3477717550122
 21
2380.660902062693
 31
0.0
  0
LINE
  5
6A1E
330
1F
100
AcDbEntity
  8
破線
100
AcDbLine
 10
-1235.402079650492
 20
2252.42821260172
 30
0.0
 11
-42.40139856585301
 21
1155.781456112279
 31
0.0
  0
LINE
  5
6A1F
330
1F
100
AcDbEntity
  8
破線
100
AcDbLine
 10
-824.0458048774161
 20
2353.976930635603
 30
0.0
 11
334.0685684975469
 21
1287.259783095563
 31
0.0
  0
LINE
  5
6A26
330
1F
100
AcDbEntity
  8
破線
100
AcDbLine
 10
385.4204442946356
 20
1332.023077535093
 30
0.0
 11
-143.8435360954026
 21
1146.969365722092
 31
0.0
  0
LINE
  5
6A29
330
1F
100
AcDbEntity
  8
太線
100
AcDbLine
 10
-412.8862215350381
 20
935.4793827385583
 30
0.0
 11
-302.6230604778393
 21
979.5398346894945
 31
0.0
  0
LINE
  5
6A2A
330
1F
100
AcDbEntity
  8
太線
100
AcDbLine
 10
-302.6230604778393
 20
979.5398346894945
 30
0.0
 11
-210.0015795143554
 21
939.885427933652
 31
0.0
  0
LINE
  5
6A2B
330
1F
100
AcDbEntity
  8
太線
100
AcDbLine
 10
-210.0015795143554
 20
939.885427933652
 30
0.0
 11
-329.086131060787
 21
887.0128855925285
 31
0.0
  0
LINE
  5
6A2C
330
1F
100
AcDbEntity
  8
太線
100
AcDbLine
 10
-329.086131060787
 20
887.0128855925285
 30
0.0
 11
-417.2967332988628
 21
931.0733375434647
 31
0.0
  0
LINE
  5
6A2D
330
1F
100
AcDbEntity
  8
破線
100
AcDbLine
 10
381.009932530811
 20
1332.023077535093
 30
0.0
 11
138.4306846357649
 21
1525.888879738282
 31
0.0
  0
LINE
  5
6A2E
330
1F
100
AcDbEntity
  8
破線
100
AcDbLine
 10
138.4306846357649
 20
1525.888879738282
 30
0.0
 11
-386.4231509520905
 21
1384.895619876217
 31
0.0
  0
LINE
  5
6A2F
330
1F
100
AcDbEntity
  8
破線
100
AcDbLine
 10
-386.4231509520905
 20
1384.895619876217
 30
0.0
 11
-135.0225125677534
 21
1151.375410917186
 31
0.0
  0
LINE
  5
6A30
330
1F
100
AcDbEntity
  8
破線
100
AcDbLine
 10
-404.065198007389
 20
1402.519800656591
 30
0.0
 11
125.199149344291
 21
1543.513060518656
 31
0.0
  0
LINE
  5
6A32
330
1F
100
AcDbEntity
  8
破線
100
AcDbLine
 10
-108.5594419848057
 20
1724.160727136535
 30
0.0
 11
-611.3603517918964
 21
1618.415828835248
 31
0.0
  0
LINE
  5
6A34
330
1F
100
AcDbEntity
  8
破線
100
AcDbLine
 10
-401.9364536241628
 20
1403.923249062645
 30
0.0
 11
-637.7448925871867
 21
1616.902602061163
 31
0.0
  0
LINE
  5
6A35
330
1F
100
AcDbEntity
  8
太線
100
AcDbLine
 10
-637.7448925871867
 20
1616.902602061163
 30
0.0
 11
-605.44236167497
 21
1620.129601490422
 31
0.0
  0
TEXT
  5
6A36
330
1F
100
AcDbEntity
  8
文字
100
AcDbText
 10
-1438.752395972551
 20
1630.027733562165
 30
0.0
 40
40.0
  1
Ｓ-1-3Ｋ
 51
15.0
  7
OKANO
100
AcDbText
  0
LINE
  5
6A39
330
1F
100
AcDbEntity
  8
太線
100
AcDbLine
 10
-108.5594419848057
 20
1724.160727136535
 30
0.0
 11
-75.59234357078094
 21
1727.230793822411
 31
0.0
  0
LINE
  5
6A3A
330
1F
100
AcDbEntity
  8
破線
100
AcDbLine
 10
-75.59234357078094
 20
1727.230793822411
 30
0.0
 11
121.6043932714965
 21
1544.967577299627
 31
0.0
  0
TEXT
  5
6A3B
330
1F
100
AcDbEntity
  8
文字
100
AcDbText
 10
-631.8848824069719
 20
1113.366188634157
 30
0.0
 40
40.0
  1
Ｓ-5-3Ｙ
 51
15.0
  7
OKANO
100
AcDbText
  0
TEXT
  5
6A3C
330
1F
100
AcDbEntity
  8
文字
100
AcDbText
 10
-1415.755644893855
 20
2104.919075412239
 30
0.0
 40
40.0
  1
Ｓ-4-2Ｌ
 51
15.0
  7
OKANO
100
AcDbText
  0
TEXT
  5
6A3D
330
1F
100
AcDbEntity
  8
文字
100
AcDbText
 10
-291.0920253538643
 20
2285.777725243359
 30
0.0
 40
40.0
  1
Ｓ-3-2Ｔ
 51
15.0
  7
OKANO
100
AcDbText
  0
TEXT
  5
6A3E
330
1F
100
AcDbEntity
  8
文字
100
AcDbText
 10
-62.3053970739711
 20
1851.891865513753
 30
0.0
 40
40.0
  1
Ｓ-2-4Ｙ
 51
15.0
  7
OKANO
100
AcDbText
  0
TEXT
  5
6A3F
330
1F
100
AcDbEntity
  8
文字
100
AcDbText
 10
737.3432474161382
 20
1384.901584065985
 30
0.0
 40
40.0
  1
Ｓ-1-3Ｋ
 51
15.0
  7
OKANO
100
AcDbText
  0
LINE
  5
6A40
330
1F
100
AcDbEntity
  8
太線
100
AcDbLine
 10
-1118.884057705174
 20
1520.722400347062
 30
0.0
 11
888.8371157075162
 21
2010.593736717651
 31
0.0
  0
TEXT
  5
6A43
330
1F
100
AcDbEntity
  8
文字
100
AcDbText
 10
370.7783085189294
 20
2081.712226623028
 30
0.0
 40
40.0
  1
Ｓ-2-4Ｙ
 51
15.0
  7
OKANO
100
AcDbText
  0
TEXT
  5
6A44
330
1F
100
AcDbEntity
  8
文字
100
AcDbText
 10
544.3518907896359
 20
2480.616995046119
 30
0.0
 40
40.0
  1
Ｓ-3-2Ｔ
 51
15.0
  7
OKANO
100
AcDbText
  0
TEXT
  5
6A45
330
1F
100
AcDbEntity
  8
文字
100
AcDbText
 10
1146.996820251923
 20
1599.957966153102
 30
0.0
 40
40.0
  1
Ｓ-1-3Ｋ
 51
15.0
  7
OKANO
100
AcDbText
  0
TEXT
  5
6A46
330
1F
100
AcDbEntity
  8
文字
100
AcDbText
 10
-678.6291880478966
 20
2271.781449273578
 30
0.0
 40
40.0
  1
20-2Ｘ
 51
15.0
  7
OKANO
100
AcDbText
  0
TEXT
  5
6A47
330
1F
100
AcDbEntity
  8
文字
100
AcDbText
 10
-1098.849787820246
 20
2360.424778923421
 30
0.0
 40
40.0
  1
11-1Ｃ
 51
15.0
  7
OKANO
100
AcDbText
  0
CIRCLE
  5
6A4F
330
1F
100
AcDbEntity
  8
太線
100
AcDbCircle
 10
-1118.884057705174
 20
1520.722400347062
 30
0.0
 40
39.86552608456409
  0
CIRCLE
  5
6A50
330
1F
100
AcDbEntity
  8
太線
100
AcDbCircle
 10
-315.7955149477347
 20
1203.472422206832
 30
0.0
 40
39.86552608456409
  0
CIRCLE
  5
6A51
330
1F
100
AcDbEntity
  8
太線
100
AcDbCircle
 10
-162.5288550488185
 20
1756.673389400617
 30
0.0
 40
39.86552608456409
  0
CIRCLE
  5
6A52
330
1F
100
AcDbEntity
  8
太線
100
AcDbCircle
 10
663.2349804043188
 20
1534.768067263416
 30
0.0
 40
39.86552608456409
  0
CIRCLE
  5
6A53
330
1F
100
AcDbEntity
  8
太線
100
AcDbCircle
 10
1395.133701948798
 20
1784.082569027959
 30
0.0
 40
39.86552608456409
  0
CIRCLE
  5
6A54
330
1F
100
AcDbEntity
  8
太線
100
AcDbCircle
 10
688.1861690946388
 20
1958.602589796501
 30
0.0
 40
39.86552608456409
  0
CIRCLE
  5
6A55
330
1F
100
AcDbEntity
  8
太線
100
AcDbCircle
 10
731.2281989069306
 20
2355.231087916385
 30
0.0
 40
39.86552608456409
  0
CIRCLE
  5
6A56
330
1F
100
AcDbEntity
  8
太線
100
AcDbCircle
 10
-1106.167736534436
 20
2048.037479257793
 30
0.0
 40
39.86552608456409
  0
CIRCLE
  5
6A57
330
1F
100
AcDbEntity
  8
太線
100
AcDbCircle
 10
-595.4279789446736
 20
2147.22512366512
 30
0.0
 40
39.86552608456409
  0
CIRCLE
  5
6A58
330
1F
100
AcDbEntity
  8
太線
100
AcDbCircle
 10
-818.5549580913502
 20
2364.162648482946
 30
0.0
 40
39.86552608456409
  0
CIRCLE
  5
6A5A
330
1F
100
AcDbEntity
  8
太線
100
AcDbCircle
 10
81.24118331749924
 20
1519.780058362899
 30
0.0
 40
39.86552608456409
  0
CIRCLE
  5
6A5B
330
1F
100
AcDbEntity
  8
太線
100
AcDbCircle
 10
300.238743304566
 20
1315.943062763253
 30
0.0
 40
39.86552608456409
  0
CIRCLE
  5
6A5C
330
1F
100
AcDbEntity
  8
太線
100
AcDbCircle
 10
-1014.542556381202
 20
2076.948889184336
 30
0.0
 40
39.86552608456409
  0
CIRCLE
  5
6A5D
330
1F
100
AcDbEntity
  8
太線
100
AcDbCircle
 10
-151.4146883302601
 20
1272.352104376012
 30
0.0
 40
39.86552608456409
  0
CIRCLE
  5
6A5E
330
1F
100
AcDbEntity
  8
太線
100
AcDbCircle
 10
214.4651332141366
 20
1383.619096883776
 30
0.0
 40
39.86552608456409
  0
CIRCLE
  5
6A5F
330
1F
100
AcDbEntity
  8
太線
100
AcDbCircle
 10
-331.7033013661275
 20
1426.006593603262
 30
0.0
 40
39.86552608456409
  0
CIRCLE
  5
6A60
330
1F
100
AcDbEntity
  8
太線
100
AcDbCircle
 10
-1237.847511915606
 20
2253.909381855744
 30
0.0
 40
39.86552608456409
  0
LEADER
  5
6A63
330
1F
100
AcDbEntity
  8
寸法線
100
AcDbLeader
  3
sunpo
 76
     2
 10
-588.0333352512097
 20
2147.062413112871
 30
0.0
 10
-563.0333406648133
 20
2267.421253787382
 30
0.0
1001
ACAD
1000
DSTYLE
1002
{
1070
   147
1040
1.0
1070
    77
1070
     0
1002
}
  0
LEADER
  5
6A64
330
1F
100
AcDbEntity
  8
寸法線
100
AcDbLeader
  3
sunpo
 76
     2
 10
-835.082909654884
 20
2356.624844514037
 30
0.0
 10
-958.0840426186915
 20
2372.796372322743
 30
0.0
1001
ACAD
1000
DSTYLE
1002
{
1070
   147
1040
1.0
1070
    77
1070
     0
1002
}
  0
LEADER
  5
6A65
330
1F
100
AcDbEntity
  8
寸法線
100
AcDbLeader
  3
sunpo
 76
     2
 10
-1217.033448578848
 20
2262.82957318559
 30
0.0
 10
-1058.426763121504
 20
2353.390389847569
 30
0.0
1001
ACAD
1000
DSTYLE
1002
{
1070
   147
1040
1.0
1070
    77
1070
     0
1002
}
  0
TEXT
  5
6A66
330
1F
100
AcDbEntity
  8
文字
100
AcDbText
 10
-1002.315762017271
 20
2203.86069699141
 30
0.0
 40
40.0
  1
20-2Ｘ
 51
15.0
  7
OKANO
100
AcDbText
  0
LEADER
  5
6A67
330
1F
100
AcDbEntity
  8
寸法線
100
AcDbLeader
  3
sunpo
 76
     2
 10
-1022.821210627909
 20
2081.707753480702
 30
0.0
 10
-932.1890286303824
 20
2198.143275569891
 30
0.0
1001
ACAD
1000
DSTYLE
1002
{
1070
   147
1040
1.0
1070
    77
1070
     0
1002
}
  0
LEADER
  5
6A68
330
1F
100
AcDbEntity
  8
寸法線
100
AcDbLeader
  3
sunpo
 76
     2
 10
-142.5999031502287
 20
2232.272046881611
 30
0.0
 10
-244.3550589454243
 20
2275.288206479424
 30
0.0
1001
ACAD
1000
DSTYLE
1002
{
1070
   147
1040
1.0
1070
    77
1070
     0
1002
}
  0
CIRCLE
  5
6A69
330
1F
100
AcDbEntity
  8
太線
100
AcDbCircle
 10
-129.7030368601554
 20
2221.525881576439
 30
0.0
 40
39.86552608456409
  0
LEADER
  5
6A6A
330
1F
100
AcDbEntity
  8
寸法線
100
AcDbLeader
  3
sunpo
 76
     2
 10
-1124.463709204399
 20
2043.642803299473
 30
0.0
 10
-1316.103179206547
 20
2093.42980933751
 30
0.0
1001
ACAD
1000
DSTYLE
1002
{
1070
   147
1040
1.0
1070
    77
1070
     0
1002
}
  0
LEADER
  5
6A6C
330
1F
100
AcDbEntity
  8
寸法線
100
AcDbLeader
  3
sunpo
 76
     2
 10
-1132.12917057675
 20
1518.964455411362
 30
0.0
 10
-1323.768640578957
 20
1618.538467487465
 30
0.0
1001
ACAD
1000
DSTYLE
1002
{
1070
   147
1040
1.0
1070
    77
1070
     0
1002
}
  0
LEADER
  5
6A6D
330
1F
100
AcDbEntity
  8
寸法線
100
AcDbLeader
  3
sunpo
 76
     3
 10
-143.2699750764295
 20
1779.388751676306
 30
0.0
 10
-12.95529693807475
 20
1848.324534505547
 30
0.0
 10
-9.12238277104916
 20
1848.324534505547
 30
0.0
1001
ACAD
1000
DSTYLE
1002
{
1070
   147
1040
1.0
1070
    77
1070
     0
1002
}
  0
LEADER
  5
6A70
330
1F
100
AcDbEntity
  8
寸法線
100
AcDbLeader
  3
sunpo
 76
     2
 10
-327.2436167445848
 20
1191.290564594703
 30
0.0
 10
-411.565159687132
 20
1133.84404784016
 30
0.0
1001
ACAD
1000
DSTYLE
1002
{
1070
   147
1040
1.0
1070
    77
1070
     0
1002
}
  0
LEADER
  5
6A71
330
1F
100
AcDbEntity
  8
寸法線
100
AcDbLeader
  3
sunpo
 76
     2
 10
1383.242677471309
 20
1765.755918520851
 30
0.0
 10
1279.757297617034
 20
1647.032943272614
 30
0.0
1001
ACAD
1000
DSTYLE
1002
{
1070
   147
1040
1.0
1070
    77
1070
     0
1002
}
  0
LEADER
  5
6A72
330
1F
100
AcDbEntity
  8
寸法線
100
AcDbLeader
  3
sunpo
 76
     2
 10
680.654281753581
 20
1522.466553093923
 30
0.0
 10
837.2239632338169
 20
1446.940713326941
 30
0.0
1001
ACAD
1000
DSTYLE
1002
{
1070
   147
1040
1.0
1070
    77
1070
     0
1002
}
  0
LEADER
  5
6A73
330
1F
100
AcDbEntity
  8
寸法線
100
AcDbLeader
  3
sunpo
 76
     2
 10
683.2109033908345
 20
1960.306297881441
 30
0.0
 10
474.9223844890366
 20
2068.704328727268
 30
0.0
1001
ACAD
1000
DSTYLE
1002
{
1070
   147
1040
1.0
1070
    77
1070
     0
1002
}
  0
TEXT
  5
6A74
330
1F
100
AcDbEntity
  8
文字
100
AcDbText
 10
148.3863535060663
 20
1013.465637167973
 30
0.0
 40
40.0
  1
20-2Ｘ
 51
15.0
  7
OKANO
100
AcDbText
  0
LEADER
  5
6A75
330
1F
100
AcDbEntity
  8
寸法線
100
AcDbLeader
  3
sunpo
 76
     2
 10
216.5230540038901
 20
1379.010641998262
 30
0.0
 10
183.5739367094356
 20
1079.390808828175
 30
0.0
1001
ACAD
1000
DSTYLE
1002
{
1070
   147
1040
1.0
1070
    77
1070
     0
1002
}
  0
LEADER
  5
6A76
330
1F
100
AcDbEntity
  8
寸法線
100
AcDbLeader
  3
sunpo
 76
     2
 10
-133.1719250958412
 20
1264.27584589913
 30
0.0
 10
179.1755346792051
 20
1079.390808828175
 30
0.0
1001
ACAD
1000
DSTYLE
1002
{
1070
   147
1040
1.0
1070
    77
1070
     0
1002
}
  0
TEXT
  5
6A77
330
1F
100
AcDbEntity
  8
文字
100
AcDbText
 10
337.5209434599964
 20
1132.131020708708
 30
0.0
 40
40.0
  1
29-1US
 51
15.0
  7
OKANO
100
AcDbText
  0
TEXT
  5
6A78
330
1F
100
AcDbEntity
  8
文字
100
AcDbText
 10
-615.6005933620035
 20
1822.302960905158
 30
0.0
 40
40.0
  1
29-1UW
  7
OKANO
100
AcDbText
  0
CIRCLE
  5
6A79
330
1F
100
AcDbEntity
  8
太線
100
AcDbCircle
 10
-60.43682848243043
 20
1184.09253306195
 30
0.0
 40
39.86552608456409
  0
LEADER
  5
6A7C
330
1F
100
AcDbEntity
  8
寸法線
100
AcDbLeader
  3
sunpo
 76
     2
 10
-62.74098052218324
 20
1180.476370249962
 30
0.0
 10
302.3329932950437
 20
1171.686272809543
 30
0.0
1001
ACAD
1000
DSTYLE
1002
{
1070
   147
1040
1.0
1070
    77
1070
     0
1002
}
  0
LEADER
  5
6A7D
330
1F
100
AcDbEntity
  8
寸法線
100
AcDbLeader
  3
sunpo
 76
     2
 10
315.5285663473187
 20
1312.326899951265
 30
0.0
 10
328.7241393995937
 20
1171.686272809543
 30
0.0
1001
ACAD
1000
DSTYLE
1002
{
1070
   147
1040
1.0
1070
    77
1070
     0
1002
}
  0
LEADER
  5
6A7E
330
1F
100
AcDbEntity
  8
寸法線
100
AcDbLeader
  3
sunpo
 76
     2
 10
-326.6498728363076
 20
1439.782380932359
 30
0.0
 10
-528.9800358425127
 20
1808.963864096033
 30
0.0
1001
ACAD
1000
DSTYLE
1002
{
1070
   147
1040
1.0
1070
    77
1070
     0
1002
}
  0
LEADER
  5
6A7F
330
1F
100
AcDbEntity
  8
寸法線
100
AcDbLeader
  3
sunpo
 76
     2
 10
69.2136491156998
 20
1518.892698753159
 30
0.0
 10
-528.9800358425127
 20
1808.963864096033
 30
0.0
1001
ACAD
1000
DSTYLE
1002
{
1070
   147
1040
1.0
1070
    77
1070
     0
1002
}
  0
LINE
  5
6A80
330
1F
100
AcDbEntity
  8
寸法線
100
AcDbLine
 10
674.9087636001059
 20
3416.566672471497
 30
0.0
 11
653.4943510458688
 21
3376.828021535126
 31
0.0
  0
LINE
  5
6A81
330
1F
100
AcDbEntity
  8
太線
100
AcDbLine
 10
2254.43958191299
 20
2502.451598938671
 30
0.0
 11
2230.018499319461
 21
2458.818233573256
 31
0.0
  0
CIRCLE
  5
6A82
330
1F
100
AcDbEntity
  8
太線
100
AcDbCircle
 10
2074.909928284876
 20
2522.960692246968
 30
0.0
 40
19.31745153322117
  0
CIRCLE
  5
6A83
330
1F
100
AcDbEntity
  8
太線
100
AcDbCircle
 10
2074.909928284876
 20
2522.960692246968
 30
0.0
 40
23.36717476684616
  0
CIRCLE
  5
6A84
330
1F
100
AcDbEntity
  8
太線
100
AcDbCircle
 10
903.2253140390967
 20
3196.729805900104
 30
0.0
 40
23.36717476684616
  0
CIRCLE
  5
6A85
330
1F
100
AcDbEntity
  8
太線
100
AcDbCircle
 10
903.2253140390967
 20
3196.729805900104
 30
0.0
 40
19.31745153322117
  0
TEXT
  5
6A86
330
1F
100
AcDbEntity
  8
文字
100
AcDbText
 10
490.0188187559251
 20
3477.378296924754
 30
0.0
 40
40.0
  1
11-1Ｃ
 51
15.0
  7
OKANO
100
AcDbText
  0
TEXT
  5
6A87
330
1F
100
AcDbEntity
  8
文字
100
AcDbText
 10
1893.895465156005
 20
2434.504489051265
 30
0.0
 40
40.0
  1
20-2Ｘ
 51
15.0
  7
OKANO
100
AcDbText
  0
TEXT
  5
6A88
330
1F
100
AcDbEntity
  8
文字
100
AcDbText
 10
731.2039794398006
 20
3107.841758088616
 30
0.0
 40
40.0
  1
20-2Ｘ
 51
15.0
  7
OKANO
100
AcDbText
  0
LEADER
  5
6A89
330
1F
100
AcDbEntity
  8
寸法線
100
AcDbLeader
  3
sunpo
 76
     2
 10
883.6802039996255
 20
3188.255996898631
 30
0.0
 10
809.7477116058581
 20
3145.172740165872
 30
0.0
1001
ACAD
1000
DSTYLE
1002
{
1070
   147
1040
1.0
1070
    77
1070
     0
1002
}
  0
LEADER
  5
6A8A
330
1F
100
AcDbEntity
  8
寸法線
100
AcDbLeader
  3
sunpo
 76
     2
 10
2054.278978798771
 20
2520.463746922148
 30
0.0
 10
1977.26584356802
 20
2477.380303808487
 30
0.0
1001
ACAD
1000
DSTYLE
1002
{
1070
   147
1040
1.0
1070
    77
1070
     0
1002
}
  0
TEXT
  5
6A8D
330
1F
100
AcDbEntity
  8
文字
100
AcDbText
 10
-1139.529349983844
 20
3047.180543046241
 30
0.0
 40
50.0
  1
単管（48.6）専用ソーラーパネル専用架台
 51
15.0
  7
OKANO
100
AcDbText
  0
TEXT
  5
6A90
330
1F
100
AcDbEntity
  8
文字
100
AcDbText
 10
-1244.899046490318
 20
1010.657062927494
 30
0.0
 40
40.0
  1
基礎、金具類は選択
 51
15.0
  7
OKANO
100
AcDbText
  0
LEADER
  5
6A91
330
1F
100
AcDbEntity
  8
寸法線
100
AcDbLeader
  3
sunpo
 76
     2
 10
-1095.665661805309
 20
1190.838963600283
 30
0.0
 10
-1008.612823492265
 20
1072.788823510898
 30
0.0
1001
ACAD
1000
DSTYLE
1002
{
1070
   147
1040
1.0
1070
    77
1070
     0
1002
}
  0
VIEWPORT
  5
2E
330
1B
100
AcDbEntity
 67
     1
  8
0
100
AcDbViewport
 10
171.2382609102216
 20
133.4620656142592
 30
0.0
 40
626.1899075273642
 41
318.0437675744884
 68
     2
 69
     1
 12
171.2382609102216
 22
133.4620656142592
 13
0.0
 23
0.0
 14
10.0
 24
10.0
 15
10.0
 25
10.0
 16
0.0
 26
0.0
 36
1.0
 17
0.0
 27
0.0
 37
0.0
 42
50.0
 43
0.0
 44
0.0
 45
318.0437675744884
 50
0.0
 51
0.0
 72
   100
 90
    32800
  1

281
     0
 71
     1
 74
     0
110
0.0
120
0.0
130
0.0
111
1.0
121
0.0
131
0.0
112
0.0
122
1.0
132
0.0
 79
     0
146
0.0
  0
VIEWPORT
  5
30
330
1B
100
AcDbEntity
 67
     1
  8
70-0-CON
100
AcDbViewport
 10
141.8594093064315
 20
100.3480256368386
 30
0.0
 40
261.6199023344245
 41
192.6196987113174
 68
     1
 69
     2
 12
662.4978598141624
 22
2323.44344747164
 13
0.0
 23
0.0
 14
5.0
 24
5.0
 15
10.0
 25
10.0
 16
0.0
 26
0.0
 36
1.0
 17
0.0
 27
0.0
 37
0.0
 42
50.0
 43
0.0
 44
0.0
 45
3420.279229848874
 50
0.0
 51
0.0
 72
   100
 90
    32864
  1

281
     0
 71
     1
 74
     0
110
0.0
120
0.0
130
0.0
111
1.0
121
0.0
131
0.0
112
0.0
122
1.0
132
0.0
 79
     0
146
0.0
  0
LWPOLYLINE
  5
45
330
1B
100
AcDbEntity
 67
     1
  8
50-0-CON
100
AcDbPolyline
 90
        4
 70
     1
 43
0.0
 10
11.04945813921926
 20
4.038176281179858
 10
272.2125713060605
 20
4.033520706629644
 10
273.4987754093466
 20
195.9297862125246
 10
11.04945813921926
 20
196.6578749924973
  0
LINE
  5
4A
330
1B
100
AcDbEntity
 67
     1
  8
50-0-CON
100
AcDbLine
 10
10.38768783662635
 20
100.3480256368386
 30
0.0
 11
-4.391850629656119
 21
100.3480256368386
 31
0.0
  0
LINE
  5
4B
330
1B
100
AcDbEntity
 67
     1
  8
50-0-CON
100
AcDbLine
 10
141.8594093064315
 20
197.098652626247
 30
0.0
 11
141.8594093064315
 21
202.387980773708
 31
0.0
  0
LINE
  5
4C
330
1B
100
AcDbEntity
 67
     1
  8
50-0-CON
100
AcDbLine
 10
272.4487699456857
 20
100.7888032705883
 30
0.0
 11
278.8458837249377
 21
100.7888032705883
 31
0.0
  0
LINE
  5
4D
330
1B
100
AcDbEntity
 67
     1
  8
50-0-CON
100
AcDbLine
 10
140.9770484758805
 20
4.038176281179858
 30
0.0
 11
140.9770484758805
 21
-3.455038652015446
 31
0.0
  0
ENDSEC
  0
SECTION
  2
OBJECTS
  0
DICTIONARY
  5
C
330
0
100
AcDbDictionary
281
     1
  3
ACAD_GROUP
350
D
  3
ACAD_LAYOUT
350
1A
  3
ACAD_MLINESTYLE
350
17
  3
ACAD_PLOTSETTINGS
350
19
  3
ACAD_PLOTSTYLENAME
350
E
  3
AcadDim
350
6A7B
  3
AcDbVariableDictionary
350
6AD
  3
DWGPROPS
350
4AEC
  0
DICTIONARY
  5
D
102
{ACAD_REACTORS
330
C
102
}
330
C
100
AcDbDictionary
281
     1
  0
DICTIONARY
  5
1A
102
{ACAD_REACTORS
330
C
102
}
330
C
100
AcDbDictionary
281
     1
  3
A4
350
1E
  3
Model
350
22
  0
DICTIONARY
  5
17
102
{ACAD_REACTORS
330
C
102
}
330
C
100
AcDbDictionary
281
     1
  3
Standard
350
18
  0
DICTIONARY
  5
19
102
{ACAD_REACTORS
330
C
102
}
330
C
100
AcDbDictionary
281
     1
  0
ACDBDICTIONARYWDFLT
  5
E
102
{ACAD_REACTORS
330
C
102
}
330
C
100
AcDbDictionary
281
     1
  3
Normal
350
F
100
AcDbDictionaryWithDefault
340
F
  0
XRECORD
  5
6A7B
102
{ACAD_REACTORS
330
C
102
}
330
C
100
AcDbXrecord
280
     1
 90
   990106
  3

 60
     0
 61
     0
 62
     1
 63
     3
 64
     0
 65
     0
 66
     0
 67
     3
 68
     1
 69
     0
 70
     0
 71
     0
 72
     0
 40
17.58046676045149
170
     0
340
6977
  0
DICTIONARY
  5
6AD
102
{ACAD_REACTORS
330
C
102
}
330
C
100
AcDbDictionary
281
     1
  3
SORTENTS
350
6AE
  0
XRECORD
  5
4AEC
102
{ACAD_REACTORS
330
C
102
}
330
C
100
AcDbXrecord
280
     1
  1
DWGPROPS COOKIE
  2

  3

  4

  6

  7

  8

  9

300
=
301
=
302
=
303
=
304
=
305
=
306
=
307
=
308
=
309
=
 40
3.342131759259259
 41
2452362.482225463
 42
2455527.444288414
  1

 90
        0
  0
LAYOUT
  5
1E
102
{ACAD_REACTORS
330
1A
102
}
330
1A
100
AcDbPlotSettings
  1

  2
none_device
  4
ISO_A4_(210.00_x_297.00_MM)
  6

 40
7.5
 41
20.0
 42
7.5
 43
20.0
 44
210.0
 45
297.0
 46
0.0
 47
0.0
 48
0.0
 49
0.0
140
0.0
141
0.0
142
1.0
143
1.0
 70
   656
 72
     1
 73
     1
 74
     5
  7

 75
    16
147
1.0
148
0.0
149
0.0
100
AcDbLayout
  1
A4
 70
     1
 71
     1
 10
-20.0
 20
-7.5
 11
277.0
 21
202.4999999999999
 12
0.0
 22
0.0
 32
0.0
 14
-4.41382938596746
 24
-3.468932611831576
 34
-0.0015258207003583
 15
278.855004473357
 25
202.394257080618
 35
0.0000000349246037
146
0.0
 13
0.0
 23
0.0
 33
0.0
 16
1.0
 26
0.0
 36
0.0
 17
0.0
 27
1.0
 37
0.0
 76
     0
330
1B
331
30
  0
LAYOUT
  5
22
102
{ACAD_REACTORS
330
1A
102
}
330
1A
100
AcDbPlotSettings
  1

  2
EPSON PM-920C
  4
A4
  6

 40
3.757083177566528
 41
14.7637300491333
 42
3.757080078125
 43
3.757080078125
 44
209.9733276367187
 45
296.9683227539062
 46
0.0
 47
0.0
 48
0.0
 49
0.0
140
0.0
141
0.0
142
1.0
143
1.0
 70
 11952
 72
     1
 73
     1
 74
     0
  7
C:\Program Files\ACAD LT 2000\Plot Styles\JOINT.ctb
 75
     0
147
1.0
148
-45.64199848979289
149
-84.48806419330498
100
AcDbLayout
  1
Model
 70
     1
 71
     0
 10
0.0
 20
0.0
 11
12.0
 21
9.0
 12
0.0
 22
0.0
 32
0.0
 14
0.0
 24
0.0
 34
0.0
 15
0.0
 25
0.0
 35
0.0
146
0.0
 13
0.0
 23
0.0
 33
0.0
 16
1.0
 26
0.0
 36
0.0
 17
0.0
 27
1.0
 37
0.0
 76
     0
330
1F
  0
MLINESTYLE
  5
18
102
{ACAD_REACTORS
330
17
102
}
330
17
100
AcDbMlineStyle
  2
STANDARD
 70
     0
  3

 62
   256
 51
90.0
 52
90.0
 71
     2
 49
0.5
 62
   256
  6
BYLAYER
 49
-0.5
 62
   256
  6
BYLAYER
  0
ACDBPLACEHOLDER
  5
F
102
{ACAD_REACTORS
330
E
102
}
330
E
  0
DICTIONARYVAR
  5
6AE
102
{ACAD_REACTORS
330
6AD
102
}
330
6AD
100
DictionaryVariables
280
     0
  1
119
  0
ENDSEC
  0
EOF
